new transposer      circle of 5ths    wap

A Pentatonic Blues Scale



012345678910111213141516171819202122






  Lefthanded scale finder   Patterns Chords Scales
 
Scale - Pentatonic Blues
1,b3,4,b5,5,b7

5-th pattern
Root note - A

Guitar Tuning:
Standard - E-A-D-G-B-E


Tuning:

Vertical Patterns
Horizontal (4 notes per string)
Horizontal (3 notes per string)
Shifted v1
Shifted v2

|------8--5------------------------------------------
|------------8--5--4---------------------------------
|---------------------7--5---------------------------
|---------------------------7--5---------------------
|---------------------------------7--6--5------------
|------------------------------------------8--5------

|------------------------------------------5--8------
|---------------------------------4--5--8------------
|---------------------------5--7---------------------
|---------------------5--7---------------------------
|------------5--6--7---------------------------------
|------5--8------------------------------------------

Copyright © 2004-2017 All-Guitar-Chords.com. All rights reserved.