new transposer      circle of 5ths    wap


Joined: way back
United States
Lessons: 2
Karma: 10

Easy Soloing

by league

14 Mar 2008
Views: 10586

For Begginers: You may have noticed that some songs have a different chord progression for a solo than for the rest of the song. This allows the soloist to break free from the chord progression. Also a simple riff is a great rhythm substitution when soloing.(e.g)Symphony of Destruction by Megadeth. I will use power chords to demonstrate how a simple chromatic progression can serve as a base for a pentatonic or minor scale solo or riff.



This is the rhythm riff but the power chords can also be used
A5 A#5 A5 A#5
e----------------------------------------------------------------------------------
B----------------------------------------------------------------------------------
G----------------------------------------------------------------------------------
D----------------------------------------------------------------------------------
A----------------------------------------------------------------------------------
E---5-5-6-5--8-6----6-6--8-6--9-8----5-5-6-5--8-6----6-6--8-6--9-8-----------------


Now lets look at the solo that goes over this riff


Blues Scale
A5
e--------------------8-5------8-5---------------------------------------------------
B------------------------8-5------8-5-----------------------------------------------
G----------------5---------------------7-5-----------7-5-7--------------------------
D-----7-5--5-7hp---------------------------7--5-6-7---------------------------------
A-----------------------------------------------------------------------------------
E---5-------------------------------------------------------------------------------

This is a really basic solo and probably as simple as it gets. This song could have a chord progression of A A# E for the rest of the song but this backdrop makes the solo sound darker and faster. I know all the exotic minor scales can make a solo sound cool but when pentatonics are played fast, they can rattle your head(this is a good thing).




Request:

Applying Modes

by phdraw

What\'s the best way to go about memorizing/using modes and applicable chords for Major, Melodic Minor and Harmonic Minor scales?





Comments:

01
04.22.2008
  TheUndying

Just do it! play them
-back ward and forwards
-with hammer ons then pull off
-tremolo picking
-Dolce, Ponticello, and Natural

02
04.26.2008
  SatanClaws

A pneumonic I learned in my Music Theory class is I Drink Pop Leave Me ALone (alone as 2 words). And they stand for I-Ionian, D-Dorian, P-Phrygian, L-Lydian, M-Mixolydian, A-Aeolian, L-Locrian. And remember them in that order for transposing into the major scale. For example if you wanted to play in G major, you could lead on B phrygian and remain in key. Or even play in F# Locrian and lead in a G Ionian (major) and will still sound totally exotic. It will make your improvising much better. Also learn the variations. I just learned Phrygian Major and it's my new favorite. Nothing beats Harmonic Minor though.

03
09.18.2012
  jrosssmith

Another great limerick to memorize the seven major modes (not including Lydian Dominant, Diminished, or Minor) is I Don't Play Licks My Auntie Likes. The first letter of each word stands for one of the seven modes: Ionian, Dorian, Phrygian, Lydian, Mixolydian, Aeolian, Locrian. It really helped me remember the modes.



Copyright © 2004-2017 All-Guitar-Chords.com. All rights reserved.