new transposer      circle of 5ths    wap


United States

2 string finger warm-ups by Al

by al_steve

21 May 2008
Views: 6346


Ex 1:
outside picking Cont.
-----------4-3-2-3-4-----------6-5-4-5-6-----------8-7-6-7-8---
-1-2-3-2-1-----------3-4-5-4-3-----------5-6-7-6-5-------------
---------------------------------------------------------------
---------------------------------------------------------------
---------------------------------------------------------------
---------------------------------------------------------------

Ex 2:
inside picking Cont.
-1-2-3-2-1-----------3-4-5-4-3-----------5-6-7-6-5-------------
-----------4-3-2-3-4-----------6-5-4-5-6-----------8-7-6-7-8---
---------------------------------------------------------------
---------------------------------------------------------------
---------------------------------------------------------------
---------------------------------------------------------------

Try to do the descending










Comments:



Copyright © 2004-2017 All-Guitar-Chords.com. All rights reserved.