new transposer      circle of 5ths    wap


3-String Sweep Practice in C Dorian

by foogered

Votes 4 | Rating 4


This was an introduction for an old tune of mine which I've since dismantled (another part of it has since transformed into my "Slap Harmonics" lick). Nowadays I just use it to warm up and work on my sweeping, which I'm trying to adapt to jazz. Picking directions that I use are denoted above each block of tablature (v meaning pick away from you, ^ meaning pick towards you). The first lick develops from a C minor arpeggio, and the second switches between a C minor arpeggio and a C minor 7 arpeggio.



P1
v v v ^ ^ v ^ ^ v ^ ^ v v v ^ ^ v ^
E|----------------------------------------------------------------|
b|-----------13-------11-------10-----------------13-------11-----|
g|--------12----12-------12-------12-----------12----12-------12--|
d|--10h13----------13-------13-------13--10h13----------13--------|
a|----------------------------------------------------------------|
e|----------------------------------------------------------------|

E1 E2 E3
^ v v v v v
E|-------|-------|----15-|
b|----10-|-11-13-|-11-13-|
g|-------|-------|----12-|
d|-13----|-------|-------|
a|-------|-------|-------|
e|-------|-------|-------|

P2 P3
^ ^ ^ v v v ^ ^ ^ v v v ^ ^ ^ v v v ^ v ^ v
E|---------------------------------------------|------------------------------------|
b|--13----------------13-11----------------11--|--13----------------13-11----11-13--|
g|-----12----------12-------12----------12-----|-----12----------12-------12--------|
d|--------13-10h13-------------13-10h13--------|--------13-10h13--------------------|
a|---------------------------------------------|------------------------------------|
e|---------------------------------------------|------------------------------------|

Sample Progression:
P1 + E1 x 1
P1 + E2 x 1
P2 x 3
P3 x 1
P1 + E1 x 1
P1 + E3 x 1

Rinse, repeat.


Enjoy!

Comments:

Guest access is read-only. To write comment, please login!



Copyright © 2004-2017 All-Guitar-Chords.com. All rights reserved.