new transposer      circle of 5ths    wap



Sweeps

by vincejonesiii

Votes 3 | Rating 3.67




-----------------11-16-11-16-11-----------------|
--------------13----------------13--------------|
-----------13----------------------13-----------|
--------13----------------------------13--------|
--11-15----------------------------------15-11--|
------------------------------------------------|


------------------12-16-12-16-12-------19-16--------|
--------------12------------------12----------17----|
-----------13------------------------13----------16-|
--------14------------------------------------------|
-----14---------------------------------------------|
--12------------------------------------------------|

--16-12-----------------------------------|
--------12----17-12-----------------------|
-----------13-------13----16-13-----------|
-----------------------14-------14--------|
-----------------------------------14-----|
--------------------------------------12--|

---------------9-12-9-12-9-----16-12---------|
-------------9---------------9---------14----|
-----------9-------------------9----------13-|
--------11-----------------------------------|
-----11--------------------------------------|
--9-------------------------------------------|


--12-9------------------------------|
-------9---14-9---------------------|
---------9------9----13-9-----------|
------------------11------11--------|
-----------------------------11-----|
--------------------------------9---|



------------------9-14-9-14-9--------17-14--------|
---------------10--------------10-----------14----|
------------11---------------------11----------14-|
---------11---------------------------------------|
--9---12------------------------------------------|
--------------------------------------------------|


--14-9-----------------------------------|
-------10----14-10-----------------------|
----------11-------11----14-11-----------|
----------------------11-------11--------|
----------------------------------12-9---|
-----------------------------------------|

-----------------11-16-11-16-11---------20-16-------|
--------------13------------------13----------16----|
-----------13------------------------13----------17-|
--------13------------------------------------------|
--11-15---------------------------------------------|
----------------------------------------------------|

--16-11------------------------------------|
--------13----16-13------------------------|
-----------13-------13----17-13------------|
-----------------------13-------13---------|
-----------------------------------15-11---|
-------------------------------------------|

Comments:

Guest access is read-only. To write comment, please login!



Copyright © 2004-2015 All-Guitar-Chords.com. All rights reserved.