new transposer      circle of 5ths    wap



Cool Dminor Arpeggio Thing

by IcedShredder

Votes 2 | Rating 4




e--5-------5-8--s10------------10-13-s15-13--------13-15-17-----------------------
B---6-----6--------11--------11------------15-14-15-------------------------------
G----7-6-7-----------12-11-12-----------------------------------------------------
D---------------------------------------------------------------------------------
A---------------------------------------------------------------------------------
E---------------------------------------------------------------------------------

e--20-18-17-----------------------------------------------------------------------
B-----------20-18-17--------------------------------------------------------------
G---------------------19-18-------------------------------------------------------
D---------------------------------------------------------------------------------
A---------------------------------------------------------------------------------
E---------------------------------------------------------------------------------


sounds good at about 170bpm at 4/4. i alternate pick through it, but it also sounds good if you can sweep through parts of it.

Comments:

01
12.02.2007
  IcedShredder

okay so its actually a d dominant 7th in 3rd inversion

02
12.02.2007
  Guitarslinger124

nice lick man

03
12.03.2007
  IcedShredder

thaks dude. ill post up some more later.

04
02.18.2008
  OldeRockerChick

Loving the arpeggios!! Thanks! Need all the practice I can get. xX

Guest access is read-only. To write comment, please login!



Copyright © 2004-2015 All-Guitar-Chords.com. All rights reserved.