new transposer      circle of 5ths    wap


Ritchie Blackmore style

by Littlewing
 


Play in sequence




----------
----------
----------
3-2h3p2---
--------5-
----------



Free strings(play as 16th notes)



------------------------------------------------------------------------
------------------------------------------------------------------------
-2-0-0-0-3-0-0-0-5-0-0-0-3-0-0-0----------------------------------------
------------------------------------------------------------------------
------------------------------------------------------------------------
------------------------------------------------------------------------



Ritchie Blackmore uses a lot of arpeggios- Example from Burn


-10---------10---------10------11---------11---------11-------8---------8-------8--------10--------10-------10------6-------6-------6-----8-------8------8-------
----11----------11--------11------13---------13----------13------10-------10-------10-------11--------11-------11-----8--------8------8------8-------8-----8-----
-------12----------12----------------12----------12-----------------10-------10----------------10--------10-------------8---------8-------------8------8---------
-----------------------------------------------------------------------------------------------------------------------------------------------------------------
-----------------------------------------------------------------------------------------------------------------------------------------------------------------
-----------------------------------------------------------------------------------------------------------------------------------------------------------------



Have fun :)



Comments:

Guest access is read-only. To write comment, please login!



Copyright © 2004-2017 All-Guitar-Chords.com. All rights reserved.