new transposer      circle of 5ths    wap


My first contribution - Finger picking arpeggio

by scr1m3

Votes 1 | Rating 4


Hey, hey everyone,

I think this is cool, but please give me some more ideas to expand on it if you have, I came up with this a couple of years ago and never got any further. I hope it will be of benefit to someone. I have a couple of slight variations that sound cool as well.



|--------0----------------------|--
|-----1------1-------1-----1----|--
|r--2--2---2---2---2---2-2---2-r|--
|r-----------------------------r|--
|----------------0--------------|--
|-0-----------------------------|--


|---------0-------0-------0--------|---------3---0-----------0-------|--
|-----1-------1-------1-------1----|-----1---------------1-------1---|--
|r--2---2---2---2---2---2---2---2-r|---2---2---2---2---2---2---2---2-|--
|r--------------------------------r|-----------------0---------------|--
|-0--------------------------------|-0-------------------------------|--
|----------------------------------|---------------------------------|--



Tiny bit slower and dramatic
|-------------------------0--------|--
|-----1-------1-------1-------1----|--
|r--2---2---2---2---2---2---2---2-r|--
|r--------------------------------r|--
|-0-------2-------3----------------|--
|----------------------------------|--

Comments:

01
12.07.2008
  RelaxedDude

Well, since you are using the C Ionian, try throwing in a G or an F
Like:
l---------------------l
l------1---(1)--------l
l-----2------2-------:l
l----3--------3------:l
l---3-----------------l
l---------------------l

02
12.21.2008
  Sylver710

i like it, makes me want to put one of my finger licks up

03
12.31.2008
  scr1m3

Thanks RelxedDude, that is a good idea. I'm messing around with it now.

Sylver710, thanks, I really appreciate it.

Guest access is read-only. To write comment, please login!



Copyright © 2004-2017 All-Guitar-Chords.com. All rights reserved.