new transposer      circle of 5ths    wap



Quicky in A minor

by Guitarslinger124

Votes 3 | Rating 3.67


Have fun with this one...the skips are minor so they wont be too hard :)

This lick is based off the E Phrygian scale in the key of C major aka A minor.






E:-15-14-13-12----------12-----------15-13-12-16-13-12-----------|
B:------------15-12-13----13-15-13-12-------------------13-12-10~|
G:--------------------14------------------------------14---------|
D:---------------------------------------------------------------|
A:---------------------------------------------------------------|
E:---------------------------------------------------------------|

E:---12---------------------------12-----------------------------|
B:-----15-13-12-13--------15-13~----15-13-12-13--------13-12-10~~|
G:-14-------------14-12-14------14-------------14-12-14----------|
D:---------------------------------------------------------------|
A:---------------------------------------------------------------|
E:---------------------------------------------------------------|


Comments:

01
02.05.2009
  Stiers

sounds pretty cool, but to get the full effect of the phrygian mode, it would have to be played in conjunction with an Em chord then including an Am in the progression to step it in to the Am key.

02
11.25.2009
  Guitarslinger124

The "full effect" is whatever effect you are looking for.

Guest access is read-only. To write comment, please login!



Copyright © 2004-2015 All-Guitar-Chords.com. All rights reserved.