new transposer      circle of 5ths    wap



Simple but fun sweep/tap

by metalman167

Votes 2 | Rating 5



---------------------13h17p13-----------------------------13h17p12--
------------------15-----------15----------------------15---------15-
---------------14-----------------14----------------14---------------
------------15-----------------------15----------15------------------
------14h17-----------------------------17p14h17---------------------
---------------------------------------------------------------------



T T
--------------------------13h17p13-----------22p17p14----------12h16P21--------
-----------------------15----------15----15-----------15----15----------14-----
--14----------------14----------------14-----------------14----------------12--
-----15----------15------------------------------------------------------------
--------17p14h17---------------------------------------------------------------
-------------------------------------------------------------------------------










Really simple, using it for my band. sounds cool if played right. not sure if i did do it right but, i thought i'd give it a shot. Thanks!

changes:
i did the wrong tap numbers
22 and 21 not 20 an 19
of course play it how u want.
whatever sounds better in your opinion.

Comments:

01
02.11.2009
  braten

cool lick... nice shape for a b dim7..i enjoy it =)

02
09.23.2009
  geoloks

preety clean sweep
i got it at the third try and it sounds awsome

thanks

Guest access is read-only. To write comment, please login!



Copyright © 2004-2015 All-Guitar-Chords.com. All rights reserved.