new transposer      circle of 5ths    wap


Sa-Re-Ga-Ma Lick :)

by 6StringEvil
 



--------------------------|--------0--1--3--5--7--8--|------------------------------
--------------------0--1--|--1--3--------------------|------------------------------
--------------0--2--------|--------------------------|------------------------------
-----0--2--3--------------|--------------------------|------------------------------
--3-----------------------|--------------------------|------------------------------
--------------------------|--------------------------|------------------------------

--------------------------|--------------------7--8--|------------------------------
--------------------------|--------------8-10--------|------------------------------
--------------------------|-----7--9-10--------------|------------------------------
--------------5--7--9-10--|-10-----------------------|------------------------------
--3--5--7--8--------------|--------------------------|------------------------------
--------------------------|--------------------------|------------------------------

This is called the Sa-Re-Ga-Ma-Pa-Dha-Ni-Sa progression in India. It corresponds to C-D-E-F-G-A-B-C. Also its equivalent to Do-Re-Mi-Fa-Sol-La-Si-Do.
This was the first lick taught to me by my teacher.

Comments:

Guest access is read-only. To write comment, please login!



Copyright © 2004-2017 All-Guitar-Chords.com. All rights reserved.