new transposer      circle of 5ths    wap


None To Flashy

by Guitarslinger124

Votes 1 | Rating 4


This is a versitile kinda lick that can be played in either a high gain setting or a clean or low gain setting and it sounds good played fast or slow. The lick traverses through just about every mode in Bb Major (Bb Ionian, C Dorian, D Phrygian, Eb Lydian, F Mixolydian, G Aeolian and A Locrian).



D:-----------------------------------------------------------------
A:-5-6-8-----------------------------------------------------------
F:------7-9-10-------------------------------------14-17-19--------
C:------------7-10-12/14~~-----------------14-17-19--------14-17-19
G:------------------------12-14-15-12-14-15------------------------
C:-----------------------------------------------------------------


D:---------------------------------------------|
A:---------15-17-20/22~~-----------------------|
F:-14-17-19-------------21------21-1912-14~~~~|
C:------------------------22--22---------------|
G:--------------------------20-----------------|
C:---------------------------------------------|

Comments:

Guest access is read-only. To write comment, please login!



Copyright © 2004-2017 All-Guitar-Chords.com. All rights reserved.