new transposer      circle of 5ths    wap


Blues Scale lick

by case211

Votes 1 | Rating 4


This is a little lick that I play to make sure that I am warmed up and ready to go. It's got influences of Slash, Randy Rhoads, and Eddie Van Halen. When playing this remember to start slow, learn the hand positioning and finger movements. This is played fairly quickly and is really fun to improvise off of, it also plays pretty good when using trill for the quick hammer on/pull off part at the beginning. Enjoy!

Note: This lick would be played over an A Minor chord, since it sits comfortable in the first box shape of A Minor Pentatonic. This would be a pretty cool little lick to be the "flair" or "flash" in a solo(A Minor/C major key). This one can really be helpful in getting your fingers to get used to the short, quick, fine, movements that are needed for the best possibly technical command of the instrument.
Also fun to use to make your friends go "ooh" and "ahh".


Key:
^-bend up
u-unbend
h-hammer on
p-pull off
(h8)-optional note
pm//-palm mute section
~-vibrato
e-------5h8p5-5h8p5-5h8p5-5h8p5-5h8p5------------------------------------------------
B---------5h8p5-5h8ph-5h8p5-5h8p5-5h8p5----------------------------------------------
G--5^7~u--------------------------------8p7(h8)p5(h7p5)------------------------------
D----------------------------------------------------5h7p5h7p5h7p5h7p5h7p5-----------
A-------------------------------------------------------------------------7p6p5-5-5--
E------------------------------------------------------------------------------8-8-8-
pm//////

e------------------------------------------------------------------------------------
B------------------------------------------------------------------------------------
G------------------------------------------------------------------------------------
D---------7-7------------------------------------------------------------------------
A-5-5-----7-5------------------------------------------------------------------------
E--8-8-5~~5-5------------------------------------------------------------------------
pm////


Comments:

Guest access is read-only. To write comment, please login!



Copyright © 2004-2017 All-Guitar-Chords.com. All rights reserved.