new transposer      circle of 5ths    wap



Some cruddy warm up excercises!

by padgea7x
 

Here's just a bunch of warm up sweeps, runs i do. Don't know if any of you will like it, but oh well.


They can be played in any tuning and any bpms. You Don't have to follow the timings like sixteenth notes. Play them at a speed you're comfortable with




S S S S S S S S S S S S S S S S S S S S S S S S S S S S
|-15---------15h18p15----------15h18p15----------------15----------------15------
|---16----16----------16----16----------16----------15----15----------15---15----
|------17----------------17----------------17----16----------16----16--------16--
|---------------------------------------------17----------------17-------------17
|--------------------------------------------------------------------------------
|--------------------------------------------------------------------------------


S S S S S S S S S S S S S S S S S S E Q
|-3-5-6-5-7-8-7-9-10-9-11-12-11-13-14-12-14-15--15b(17)--15v
|-----------------------------------------------------------
|-----------------------------------------------------------
|-----------------------------------------------------------
|-----------------------------------------------------------
|-----------------------------------------------------------


S S S S S S S S S S S S S S S S S S S S S S S S
|---------------------------------------------------12-14-15
|---------------------------------11-13-14------------------
|-------------------------9-11-12----------10-12-13---------
|-------------7-9-10----------------------------------------
|-------5-7-8-------7-9-10----------------------------------
|-3-5-6-----------------------------------------------------

S S S S S S S S S S S S S S S S S S S
|-----------------------------------16h21p15---------
|----------------17--------------17---------17-------
|-------------16---16---------16---------------16----
|----------18---------18---18--------------------17--
|-------19--------------19-------------------------19
|-17-19----------------------------------------------


They probably sound rubbish, but oh well!




Comments:

01
05.23.2009
  HeavyGuitar

Is this four licks? Or just one?:)

02
05.31.2009
  padgea7x

They're just four :) and i just need to change the first one abit

Guest access is read-only. To write comment, please login!



Copyright © 2004-2015 All-Guitar-Chords.com. All rights reserved.