new transposer      circle of 5ths    wap



Breakdown Riff Practice Lick

by Druox

Votes 3 | Rating 4.67

Breakdown Riff Practice Lick

Skill Level - Intermediate


PM PM PM PM PM PM PM PM
E S S E S S S S S S E S S
---------------------------------------|
---------------------------------------|
---------------------------------------|
--------------------3------------------|
--2--------2--------1---------2--------|
--0--0--0--0--0--0----0-0--0--0--0--0--|


PM PM PM PM PM PM PM PM
S S S S E S S S S S S S S S S
-----------------------------------------|
-----------------------------------------|
-----------------------------------------|
-----------------------------------------|
--3---------2--------8-------8-------5-L-|
--1-0-0--0--0--0--0--6-0--0--6-0--0--3-L-|


PM PM PM PM PM PM PM PM
E S S E S S S S S S E S S
---------------------------------------|
---------------------------------------|
---------------------------------------|
--------------------3------------------|
--2--------2--------1---------2--------|
--0--0--0--0--0--0----0-0--0--0--0--0--|


PM PM PM PM
S S S S E S S E S E S E
----------------------------------|
----------------------------------|
----------------------------------|
---------------------5--L-8--L-7--|
--3---------2--------5--L-8--L-7--|
--1-0-0--0--0--0--0--3--L-6--L-5--|


PM PM PM PM PM PM PM PM
E S S E S S S S S S E S S
---------------------------------------|
---------------------------------------|
---------------------------------------|
--------------------3------------------|
--2--------2--------1---------2--------|
--0--0--0--0--0--0----0-0--0--0--0--0--|


PM PM PM PM PM PM PM PM
S S S S E S S S S S S S S S S
-----------------------------------------|
-----------------------------------------|
-----------------------------------------|
-----------------------------------------|
--3---------2--------8-------8-------5-L-|
--1-0-0--0--0--0--0--6-0--0--6-0--0--3-L-|


PM PM PM PM PM PM PM PM
E S S E S S S S S S E S S
---------------------------------------|
---------------------------------------|
---------------------------------------|
--------------------3------------------|
--2--------2--------1---------2--------|
--0--0--0--0--0--0----0-0--0--0--0--0--|


PM PM PM PM
S S S S E S S E S E S E
----------------------------------|
----------------------------------|
----------------------------------|
---------------------5--L-8--L-7--|
--3---------2--------5--L-8--L-7--|
--1-0-0--0--0--0--0--3--L-6--L-5--|


|--3-| |-3-|
E S S S S S S S E S S S S S S S
-------------------------------------|
-------------------------------------|
-------------------------------------|
-------------------------------------|
--2------7-10-7-----2------5-8-5-----|
--0--0-0--------0-0-0--0-0-------0-0-|


|-3-| |-3-| |-3-| |-3-|
E S S S S S S S S S S S S S S S S S S
-----------------------------------------||
-----------------------------------------||
-----------------------------------------||
-----------------------------------------||
--2------3-6-3-----2-5-2-----1-4-1-0-3-0-||
--0--0-0-------0-0-------0-0-------------||

|--3-| |-3-|
E S S S S S S S E S S S S S S S
-------------------------------------|
-------------------------------------|
-------------------------------------|
-------------------------------------|
--2------7-10-7-----2------5-8-5-----|
--0--0-0--------0-0-0--0-0-------0-0-|

|-3-| |-3-| |-3-| |-3-|
E S S S S S S S S S S S S S S S S S S
-----------------------------------------||
-----------------------------------------||
-----------------------------------------||
-----------------------------------------||
--2------3-6-3-----2-5-2-----1-4-1-0-3-0-||
--0--0-0-------0-0-------0-0-------------||


This riff is a great way of practicing hammer-ons and downstrokes.

The picking patterns you could practice is alternate picking, or downstrokes. Both can make this riff happen.

The patterns of picking you will be practicing are used in many different riffs in metal and even rock. The timing is the key. Especially at the end riff.

Tempo - 90 bpm

The notes are made so you emphasize each chord you play. The palm muting helps to accent the chords and leads.

With practice, you can use the picking techniques to create your own kick-ass breakdown for your songs!

Comments:

01
05.24.2009
  HeavyGuitar

Awesome:)

02
05.26.2009
  Guitarslinger124

pretty awesome dude

03
05.28.2009
  guitarmastergod

this is a riff not a lick

04
12.02.2009
  GigatonGrimm

I definitely like it. Good playing as well!

Guest access is read-only. To write comment, please login!



Copyright © 2004-2015 All-Guitar-Chords.com. All rights reserved.