new transposer      circle of 5ths    wap


RiffoO

by Danielfly

Votes 1 | Rating 4



PM PM PM PM PM PM PM PM PM PM PM PM PM
S S E S S E E E E E E S S E E E E S S E
E||--------------------------------|--------------------------------|
B||--------------------------------|--------------------------------|
G||--------------------------------|--------------------------------|
D||--------------------------------|-----------------------------5--|
A||--------2--------------5--7-----|--2--------------5--7--------3--|
E||--0--0--0--0--0--0--0--------0--|--0--0--0--0--0--------0--0--1--|


PM PM PM PM PM PM PM PM PM PM PM PM PM PM
S S E E E E E E S S E E E E S S E S S E
--------------------------------|--------------------------------|
--------------------------------|--------------------------------|
--------------------------------|--------------------------------|
-----------------------5--------|--------------------5-----------|
--------------7--8-----3--------|--------7--8--------5-----------|
--0--0--0--0--------0--1--0--0--|--0--0--------0--0--3--0--0--0--|


PM PM PM PM PM PM PM PM PM PM PM PM
E E E E E S S E E E E S S E S S E E E
------------------------------|---------------------------------|
------------------------------|---------------------------------|
------------------------------|---------------------------------|
---------------5--------------|---------------5-----------------|
-----8--10-----5--------------|--8--10--------3--------------7--|
--0---------0--3--0--0--0--0--|---------0--0--1--0--0--0--0-----|


PM PM PM PM PM PM PM PM PM PM PM PM
E S S E S S E E Q E S S E E E E E E
--------------------------------||-------------------------------|
--------------------------------||-------------------------------|
-------------------------------*||*------------------------------|
--------------------------9----*||*------------------------------|
--8--------2--------------7-----||------------------7p--5-----8--|
-----0--0--0--0--0--0--0--------||---0--0--0--0--0---------0-----|


PM PM PM PM PM PM PM PM PM PM PM
E S S E E E E E E E S S E E E E E E
-------------------------------|------------------------------|
-------------------------------|------------------------------|
-------------------------------|------------------------------|
-------------------------------|------------------------------|
-----------------8h--10--8--7--|-----------------7p--5-----8--|
--0--0--0--0--0----------------|--0--0--0--0--0---------0-----|


PM PM PM PM PM
E S S E E E E Q
------------------------------||
------------------------------||
-----------------------------*||
-----------------------------*||
-----------------5p--3--2-----||
--0--0--0--0--0---------------||


Comments:

Guest access is read-only. To write comment, please login!



Copyright © 2004-2017 All-Guitar-Chords.com. All rights reserved.