new transposer      circle of 5ths    wap



Slay the Gods

by Guitarslinger124

Votes 1 | Rating 5




e:------------------------------------------------------------------------------5----
B:---------------------------------------------------2-----------4---------5-6-8-8-6-
G:------------------------------------2---------2-4-5-5-4-2/4-5-7-7-5-4-5-7----------
D:---------------------2---------2-3-5-5-3-2-3-5-------------------------------------
A:------2---------2-3-5-5-3-2-3-5----------------------------------------------------
D:-2-3-5-5-3-2-3-5-------------------------------------------------------------------

e:----------|
B:-5--------|
G:--8\7\5---|
D:-------7~~|
A:----------|
D:----------|

e:------------------------------------------------------------------|
B:------------------------------------------------------14----------|
G:---------------------------------------12-----14-16-17-17-16-14~~~|
D:------------------------12-----12-13-15--15-13--------------------|
A:---------12-----12-13-15--15-13-----------------------------------|
D:-12-13-15--15-13--------------------------------------------------|

e:-----------------------------------------16-17-19-----------------------|
B:---------------------------------15-17-19--------17~~17\13-12-----------|
G:-------------------------14-16-17----------------------------13---------|
D:-----------------12-13-15--------------------------------------14\6-7~~~|
A:---------12-13-15-------------------------------------------------------|
D:-12-13-15---------------------------------------------------------------|


Comments:

Guest access is read-only. To write comment, please login!



Copyright © 2004-2015 All-Guitar-Chords.com. All rights reserved.