new transposer      circle of 5ths    wap



Final Fantasy Arpeggio

by Guitar_Demon

Votes 2 | Rating 5



Final Fantasy Arpeggio
Key = D minor
D D D U D D D D U U U U D U U
E|----------------------15-17p15-------------------|
B|-------------------18----------18----------------|
G|----------------17----------------17-------------|
D|-------15-17-19----------------------19-17-15----|
A|----15----------------------------------------15-|
E|-17----------------------------------------------|

D D D U D D D D U U U U D U U
E|----------------------12-13p12-------------------|
B|-------------------15----------15----------------|
G|----------------14----------------14-------------|
D|-------12-14-15----------------------15-14-12----|
A|----12----------------------------------------12-|
E|-13----------------------------------------------|
Repeat the 2 bars above

D D D U D D D D U U U U D U U
E|--------------------8-10p8-----------------|
B|-----------------11--------11--------------|
G|--------------10--------------10-----------|
D|------8-10-12--------------------12-10-8---|
A|----8------------------------------------8-|
E|-10----------------------------------------|

D D D U D D D D U U U U D U U
E|----------------------10-12p10-------------------|
B|-------------------13----------13----------------|
G|----------------12----------------12-------------|
D|-------10-12-14----------------------14-12-10----|
A|----10----------------------------------------10-|
E|-12----------------------------------------------|

D D U D U D D U D U D U U D U D
E|----------------------9--------------------|
B|-----------------9-13---13-9---------------|
G|--------------10-------------10------------|
D|--------10-11-------------------11-10------|
A|---8-11-------------------------------11-8-|
E|-9-----------------------------------------|

D D U D U D D U D U D U U D U D
E|-------------------------11----------------------|
B|-------------------11-15----15-11----------------|
G|----------------12----------------12-------------|
D|----------12-13----------------------13-12-------|
A|----10-13----------------------------------13-10-|
E|-11----------------------------------------------|
Repeat from beginning and then play last bar

D D D U D D D D U
E|----------------------15-17----------------------|
B|-------------------18----------------------------|
G|----------------17-------------------------------|
D|-------15-17-19----------------------------------|
A|----15-------------------------------------------|
E|-17----------------------------------------------|


Comments:

Guest access is read-only. To write comment, please login!



Copyright © 2004-2015 All-Guitar-Chords.com. All rights reserved.