new transposer      circle of 5ths    wap


shredding in E minor (metal)

by johnnysixstring
 



E------------------------------12p10p9--------------------------------
B---------------------------------------------12p10p9-----------------
G-----------------------7h9h10----------10p9p7------------------------
D-----------------7h9h10-----------------------------10p9p7-----------
A----------5h7h8------------------------------------------------------
E--00-5h7h8-----00------------------------------------------0*-2*-3*--

e----------------------------------------------------------------
b----------------------------------------------------------------
g----------------------------------------------------------------
d-------------------------------------------------------2--------
a----5h8p5h8p5h8---3h6p3h6p3h6--------------------------2--------
e--00------------00------------00-5h8p5h8p5h8-0*-2*-3*--0--------


Comments:

Guest access is read-only. To write comment, please login!



Copyright © 2004-2017 All-Guitar-Chords.com. All rights reserved.