new transposer      circle of 5ths    wap


Veil of maya type riff

by metalman167

Votes 1 | Rating 5



-----------------------------------6h10p6---------------------
----------------------------------8------8--------------------
---------------------------------7--------7-------------------
------4h5p4----------5-4--------8------------4-5-4h5p4--------
-0h5h6------6p5------1-1--0h6h10-------------5-6-------6-5----
----------------0-00-1-1--------------------------------------




--------------------------------------------------------------
-------------------------------------------------------------
-------------------------------------------------------------
--10----10-10--12---12-12------------------------------------
-----6----6-------9---9--------------------------------------
------------------------------------------------------------- x2


and on final time play this


--------------------------------------
--------------------------------------
--------------------------------------
-4---4-4--5----5-5--------------------
---1--1-----3---3---------------------
--------------------------------------



this is in Drop B. If you wanna know how the timing sort of is listen to "We bow in its aura" its along those lines.

but this is a really fun lick
and sounds pretty dang cool
have fun!



Comments:

Guest access is read-only. To write comment, please login!



Copyright © 2004-2017 All-Guitar-Chords.com. All rights reserved.