new transposer      circle of 5ths    wap



just some song

by johnnysixstring

Votes 1 | Rating 5




e-------------------------------------------------------
b-------------------------------------------------------
g-------------------------------------------------------
d-------------------------------------------------------
a------6/8-----8-8-4-6-4-------8-8-----8-8-----8-8------
e--0-0-4/6-0-0-6-6-------6-5-4-6-6-0-0-6-6-0-0-6-6------
pm . . . . . . . .

e-------------------------------------------------------
b-------------------------------------------------------
g-------------------------------------------------------
d-------------------------------------------------------
a----------6/8-6/8---------6/8-6/8----------6/8-6/8-----
e--0-0-0-0-4/6-4/6-0-0-0-0-4/6-4/6--0-0-0-0-4/6-4/6-----
pm . . . . . . . . . . . .

e----------------6-6----6-6--------------------------------------------13-18b-----
b----------------6-6----6-6-----14--------14--14--------14-----------14-----------
g----6-----6--6h8----6h8---13h15--15-13h15--15--15-13-15--15-13-15-15-------------
d-6h8-8-6h8-8---------------------------------------------------------------------
a---------------------------------------------------------------------------------
e---------------------------------------------------------------------------------




Comments:

01
08.26.2010
  Jomann

That has a really interesting sound! kind of blues-like.

Guest access is read-only. To write comment, please login!



Copyright © 2004-2015 All-Guitar-Chords.com. All rights reserved.