new transposer      circle of 5ths    wap



G

by Zula110100100

Votes 1 | Rating 5




e--------------------------------------------------------
b--------------------------------------------------------
G-----4----5----7----5----4h5p4-------------------------- x2
D--5-----5----5----5----5--------5--4--5----5---5--7--4--
A----------------------------------------7----5----------
E--------------------------------------------------------

e--------------------------------------------------------------------------
b--------------------------------------------------------------------------
G----------0----2----4----2----0-----2----4----5----4----2-----4----5----7-
D--h5--2-----2----2----2----2----4-----4----4----4----4----5-----5----5---
A--------------------------------------------------------------------------
E--------------------------------------------------------------------------


e--------------------------------------
b--------------------------------------
G----5----4-----5----7----9-7-5-7-5-4--
D--5----5----7-----7----7--------------
A--------------------------------------
E--------------------------------------

Comments:

01
08.26.2010
  Jomann

Very nice!

02
12.13.2011
  janvier14

very nice

Guest access is read-only. To write comment, please login!



Copyright © 2004-2015 All-Guitar-Chords.com. All rights reserved.