new transposer      circle of 5ths    wap



Blues Shred Lick

by Guitarslinger124

Votes 1 | Rating 5


Hey guys, been awhile since I last added a lick. So here are a couple new blues shred ones. Both are played legato.



d:------------------------|
A:------------5-----------|
F:-4-5-6-5-6-7-8-7-5-7-5--|
C:----------------------7-|
G:------------------------|
C:------------------------|





d:------------------------------------|
A:------------------------------------|
F:-7-6-5-5----------------------------|
C:------7-7-5-7-6-5-5-----------------|
G:-----------------7-7-5-7-6-5-5------|
C:----------------------------7-7-5-7-|


And I leave you with that.

Rock on!

Comments:

01
10.24.2010
  MoshZilla1016

Good job man!! Just wondering, are you playing triplets or 16th notes?

02
10.28.2010
  Guitarslinger124

16th's man. Glad you like it.

Rock on!

Guest access is read-only. To write comment, please login!



Copyright © 2004-2015 All-Guitar-Chords.com. All rights reserved.