new transposer      circle of 5ths    wap


first lick

by kallofktulu

Votes 1 | Rating 4


Hi,im new on this site so i decide to put a little song!
the picking pattern is quite the same:


E---------------------------------
B------0-----------0---------0---
G------------0----------0--------
D---------------------0-----------
A----------------------------------
E--0--0--0----0--0------0----0-

So there it goes:(I don't have title yet)


E---------------------------------------------------0-------------------------------
B------3-----------3---------3--------3---------------------3--------3----------3-
G------------0----------0--------------------0----------0------------------0------
D---------------------0--------------------------------0----------------------------
A-------------------------------------------------------------------3--3--3---3--3-
E--3--3--3----3--3------3----3--3--3--3----3--3------3---3-------------------

------------------------------0------------
--------3--------0-------------------0----
---0-------------------2---------2-------- (2x)
-2-----------------------------2----------
-----3----3--0--0--0---0--0-----0---0-
-------------------------------------------

E---------------------------------------0------------------------------------------
B------3-----------1---------3---------------------0--------3--------1----------0-
G------------0----------0--------------------0----------0------------------0------
D---------------------0--------------------------------0----------------------------
A-------------------------------------------------------------------3--3--3---3--3-
E--3--3--3----3--3------3----3--3--3--3----3--3------3---3-------------------

-------------------------------------------
--------0--------1-----------3-------3----
---0-------------------0---------0-------- (2x)
-2-----------------------------2----------
-----3----3--3--3--3---3--3-----3---3-
-------------------------------------------

E------------0---------------------------------------------------------------0------
B------3-----------0---------0--------3-----1-----0--------0--------3----------0-
G-----------------------0-------------------------------0-------------------------
D---------------------0--------------------------------0----------------------------
A-------------------------------------------------------------------3--3--3---3--3-
E--3--3--3----3--3------3----3--3--3--3----3--3------3---3-------------------

------------------------------3------------
--------0--------3-------------------0----
---0-------------------0---------0-------- (2x)
-2-----------------------------2----------
-----3----3--3--3--3---3--3-----3---3-
-------------------------------------------

E------------------------------------------------------------------------------------
B------0-----------3---------3--------0----------3-------3---------0----------3-
G------------0----------0-------------------2--------2--------------------0-------
D---------------------2------------------------------2------------------------------
A-----------------------------------0--0--0---0--0-----0---0---3--3--3---3--3-
E--0--0--0----0--0------0----0---------------------------------------------------

------------------3----------2-----------
--------3--------------3---------3---3--
---0---------------------------2---------- (2x)
-2-----------0--0--0---0--0-----0---0-
-----3----3-------------------------------
--------------------------------------------

If you have questions on chords or advices to give don't hesitate!!
Enjoy!!


Comments:

01
01.09.2011
  nullnaught

this is cool.

02
01.10.2011
  scottslayer

I like it.

03
03.02.2011
  JazzMaverick

This isn't a lick dude, it's a song - please understand that this is the lick section of the site - if you want to post a song, please do so in the usual forum discussions section by starting a new topic.

Thank you.

Guest access is read-only. To write comment, please login!



Copyright © 2004-2017 All-Guitar-Chords.com. All rights reserved.