new transposer      circle of 5ths    wap


Solo Ending

by V3N0M3333
 

This lick is composed of 3 sweeps followed by a Neo-Classical style economy picking lick. It is tabbed in F#min, but it can be used in any Minor key of course. The sweeps are: Dmaj, EbDim, Emaj. Then the tremolo picking part is based on the F# harmonic Minor scale...enjoy



Dmaj(D5) EbDim(
H T S S P P P S H S S P
E|----------5-10-14-17-14-10-5---------------------5-8-13-8-5-----------|
B|--------7--------------------7-----------------7------------7---------|
G|------7------------------------7-------------5----------------5-------|
D|----7----------------------------7---------7--------------------7-----|
A|5-9--------------------------------9-5-6-9------------------------9-6-|
E|----------------------------------------------------------------------|

Emaj V3N0M
H T S S P P S
E|-----------7-12-16-19-16-12-7-------7-12-16-14-13---------13-14-16-19-17-16|
B|---------9--------------------9---9--------------14-----15-----------------|
G|-------9------------------------9------------------13-16-------------------|
D|-----9---------------------------------------------------------------------|
A|7-11-----------------------------------------------------------------------|
E|---------------------------------------------------------------------------|

E|---------------------------------------------------------------------------|
B|19-18-15--------------15-17-18-18^19~~~~~~~~~~~~~~~~~~~~~~~~~~~~~~~~~~~~~~~|
G|--------18-16-14-16-18-----------------------------------------------------|
D|---------------------------------------------------------------------------|
A|---------------------------------------------------------------------------|
E|---------------------------------------------------------------------------|



And it is played over this



D|7 D|9 D|9 D|10
A|5 A|6 A|7 A|8
Dmaj EbMin Emaj V3N0M


Comments:

01
03.18.2011
  gshredder2112

dude,you type just.like yngwi maalsteen talks.

02
03.19.2011
  V3N0M3333

lol idk if that good or bad.but since i cant even understand his lessons....im guessing its bad

03
03.20.2011
  gshredder2112

naw its gud,its just hit me when you said"it can be done in any minor key of ciurse"yngwie alwayss says that lol good licks.tho

04
03.21.2011
  V3N0M3333

lol thanks

05
03.21.2011
  V3N0M3333

i wanna record myself playing it but i cant right now

06
03.23.2011
  gshredder2112

its cool bro,i understand im.in no position to.record,not from.lack.of.skill just lack of money...

07
03.23.2011
  V3N0M3333

same here

08
03.24.2011
  gshredder2112

haha well hope to see ya around more.

gs2112

09
03.24.2011
  V3N0M3333

yea u will...i will try to post a new lick every week

Guest access is read-only. To write comment, please login!



Copyright © 2004-2017 All-Guitar-Chords.com. All rights reserved.