new transposer      circle of 5ths    wap



Shred or dead - Lick 2

by joedelbucohemond

Votes 2 | Rating 4


This is shred lick number two!
I'm trying to keep it origional and challenging.
This is a fun pattern lick involving some string skipping.
LISTEN to the track. It will help you understand how
to play this. X d XD




1x DM C#dim
2x AM
1E|-----------------------------------------------------
2B|------------------------------------------------------
3G|-------------------------------------------------------
4D|-----------7-------9-7-11-9-11-7-9-------7-----------
5A|--------------------------------------------------------
6E|-7-10-9-------10---------------------10-------9-10------

^Repeat 2x^^^^^^^^^^^^^^^^^^^^^^^^^^^

1x C#dim
1E|--------------------------------------------------
2B|-----------------------------------------------------
3G|---------------------------------------------------
4D|---------4--------5-4-7-5-7-4-5-----4----------------
5A|------------------------------------------------------
6E|-3-7-5-------7-------------------7------5-7------------


1x AM
1E|-------------------------------------------------
2B|-----------------------------------------------------
3G|---------------------------------------------------
4D|----------5-------7-5-9-7-9-5-7--------5---------------
5A|------------------------------------------------------
6E|-5-9-7--------9----------------------9-------7-9-----------


Get the idea? RocK on X d xD

Comments:

01
07.09.2011
  joedelbucohemond

Tabs came out crappy guess it's time to find a new transcription method. Any suggestions?

02
07.09.2011
  joedelbucohemond

LOL nvm actually just realized I can change up the spacing formula and all will be well... XD

03
07.09.2011
  gshredder2112

Dude the insert ""tab" button below the lick window.
and type your lick.in between [tab] and [/T@b] << but replace that @ with an a.

04
07.09.2011
  joedelbucohemond

Gotcha. I'll try it on the next lick tomorrow.

05
07.09.2011
  V3N0M3333

great lick dude +1

Guest access is read-only. To write comment, please login!



Copyright © 2004-2015 All-Guitar-Chords.com. All rights reserved.