new transposer      circle of 5ths    wap


alimony children

by gunslinger
 

main riff


e---------------------------------------------
b---------8------------8---------------------- x2
g---7--9----9----7--9----9--12--11--9---------
d--------------------------------------12--9--
a---------------------------------------------
E---------------------------------------------

verse/chorus I dont know


e---------------------------------------------
b--------------------------------------------- x4
g7-999-7-999-7-999-7-999----------------------
d---------------------------------------------
a---------------------------------------------
E---------------------------------------------


chords are e minor
a major
c major
d major

Any thoughts? If you have any suggestions let me know. Any solo tips like what scale I can use?

Comments:

Guest access is read-only. To write comment, please login!



Copyright © 2004-2017 All-Guitar-Chords.com. All rights reserved.