new transposer      circle of 5ths    wap


cool little thinger in Em

by Guitarslinger124

Votes 4 | Rating 5


Add the bends, pull offs and hammer ons and stuff how ever you want...


E:----------------------------
B:----------15----------------
G:-14----------17-16-14/12-14-
D:----17-16-------------------
A:----------------------------
E:----------------------------

sounds sweet as hell when you play it over the first one....


E:----------------------------
B:----------17----------------
G:-16----------19-17-16/14-16-
D:----19-17-------------------
A:----------------------------
E:----------------------------

Comments:

01
02.18.2008
  OldeRockerChick

This dose soind killer! Nice harmony. xX

Guest access is read-only. To write comment, please login!



Copyright © 2004-2017 All-Guitar-Chords.com. All rights reserved.