new transposer      circle of 5ths    wap


F # minor arpeggio.

by matt8675
 


[ F#m
E||--------------------------------------------------14---9-14p0-0h17-16-14-|
B||-------------------------------------------10---10---10------------------|
G||--------------------------------------11---- 11---10---------------------|
D||-------------------------7---7h11p7h11---11------------------------------|
A||-------------------9---9---9---------------------------------------------|
E||--2h7p2h5p2h5p9h5p9---9--------------------------------------------------|


-17-14h21-19-17-----------------------------------------------------|
----------------19----19--------------------------------------------|
-------------------18----18----18-----------------------------------|
----------------------------19----19p16h19p16----16-----------------|
----------------------------------------------16----16-12-16-12-----|
----------------------------------------------------------------14~-|/tab]

This Is similar to Arpeggios from Hell, but raised a whole step and a little off compared to how Yngwie plays it.
Ill try to add sound.

Comments:

Guest access is read-only. To write comment, please login!



Copyright © 2004-2017 All-Guitar-Chords.com. All rights reserved.