new transposer      circle of 5ths    wap



Some Guitar Licks I wrote.

by Johnnymcnay
 




Drop D tuning

T T
|-------------0h12h13-17-13p12----|-------------0h12h13-18-13p12----|
|----------15------------------15-|----------15------------------13-|
|-------14------------------------|-------14------------------------|
|-12h15---------------------------|-12h15---------------------------|
|---------------------------------|---------------------------------|
|---------------------------------|---------------------------------|

T T
|-------------0h12h13-22-13p12-20-13p12-------------|
|----------15---------------------------13----------|
|-------14---------------------------------14----14-|
|-12h15---------------------------------------15-15-|
|------------------------------------------------12-|
|------------------------------------------------12-|


|-------------------------6-|-------------------------5-|
|-------------------------9-|-------------------------8-|
|-----5/7---5/7-----8\7---8-|-----5/7---5/7-----8\7---7-|
|-----5/7---5/7-----8\7---6-|-----5/7---5/7-----8\7---5-|
|-----3/5---3/5-----6\5---6-|-----3/5---3/5-----6\5---5-|
|-0-0-----0-----0-0-----0-6-|-0-0-----0-----0-0-----0-5-|







Comments:

Guest access is read-only. To write comment, please login!



Copyright © 2004-2015 All-Guitar-Chords.com. All rights reserved.