new transposer      circle of 5ths    wap


Song

by Johnnymcnay
 



Drop C Tuning

Intro/Main Riff

Guitar #1
|---------------------------|--------------------------------------|
|---------------------------|--------------------------------------|
|---------------------------|--------------------------------------| (x2)
|---------------------------|------------------7h8p7----7----------|
|-5-----5-----------0h5h8-7-|-----13-----13----------10---10p8p7---|
|---000---000-0h5h8---------|-888----888----888------------------12|
... ... ... ... ...

Guitar #2
|---------------------------|--------------------------|
|---------------------------|--------------------------|
|---------------------------|--------------------------|
|---------------------------|--------------------------|
|---------------------------|--------------------------|
|--000----000----000----00--|-888-----888----888-----88|


Guitar #1 and Guitar #2
|----------------------------|
|----------------------------|
|----------------------------|
|-0))------------------------|
|-0))------------------------|
|-0))------------------------|

Pre-Verse

Guitar #1 T
|-------------13h17p13---|-------13h17-18p17p13-----|----------------------|
|----------15----------15|----15----------------15--|----------------------|
|-------14---------------|-14-----------------------|----------------------|
|----15------------------|--------------------------|-0))------------------|
|-17---------------------|--------------------------|-0))------------------|
|------------------------|--------------------------|-0))------------------|

Guitar #2
|------------------------|--------------------------|----------------------|
|------------------------|--------------------------|----------------------|
|------------------------|--------------------------|----------------------|
|------------------------|--------------------------|-7h8p7----7-----------|
|-5----------------------|-5------------------------|-------10---10p8p7----|
|---000-------000--------|---000-------000----------|-------------------12-|


Guitar #1
|-----------------------|-----------------------|--------------------|
|-----------------------|-----------------------|--------------------|
|-----------------------|-----------------------|--------------------|
|-----------------------|-----------------------|--------------------|
|-13--------------------|-13--------------------|-------0h5h8-7------|
|----888------888-------|----888-----888--------|-0h5h8---------8----|


Guitar #2
|-------------9h13p9----|------9h13-14p13p9-----|--------------------|
|----------11--------11-|----11--------------11-|--------------------|
|-------10--------------|-10--------------------|--------------------|
|----12-----------------|-----------------------|-8))----------------|
|-13--------------------|-----------------------|-8))----------------|
|-----------------------|-----------------------|-8))----------------|


Verse #1

Call me a back stabber,
and I will prove it true.
You are just a coward
with several beatings due.

But when were face to face,
In the right and time and place.
I will show no mercy,
And this blade you will taste.


Guitar #1 and Guitar #2
|-----------------|-----------------|-----------------|----------------|
|-----------------|-----------------|-----------------|----------------|
|-----------------|-----------------|-----------------|----------------|
|-----------------|-----------------|-----------------|----------------|
|-----------------|-----------------|-----------------|----------------|
|-0-0-0-0-000-000-|-3-3-3-3-333-333-|-8-8-8-8-888-888-|-7-7-7-7-777-777|



Written By ::::> Fiend Or friend


Comments:

Guest access is read-only. To write comment, please login!



Copyright © 2004-2017 All-Guitar-Chords.com. All rights reserved.