new transposer      circle of 5ths    wap



Diary of a Madman

by Guitarslinger124

Votes 1 | Rating 5


This is a pretty cool song I came up with. Feel free to take it and change it to your liking. The solos may be a bit tricky, so take your time.





Gtr I (E A D G B E) - 'Untitled'
Gtr II (E A D G B E) - 'Untitled'
Gtr III (E A D G B E) - 'Untitled'

Gtr II
Q Q H Q Q H Q Q H Q Q H
|-------------------------------------------------|
|-------------------------------------------------|
|-------------------------------------------------|
|--------------------------------------------6----|
|-------5----------8------------12----11--8--7----|
|-0--1--4----5--6--9----10--12--13----------------|
|
| Gtr I
| W W W W
|-1----------0-----------4-------------0----------|
|-3----------2-----------6-------------5----------|
|-------------------------------------------------|
|-------------------------------------------------|
|-------------------------------------------------|
|-------------------------------------------------|


Gtr I
W W W W
|-1------------|-0------------|-4--------------|-0--------------|
|-3------------|-2------------|-6--------------|-5--------------|
|--------------|--------------|----------------|----------------|
|--------------|--------------|----------------|----------------|
|--------------|--------------|----------------|----------------|
|--------------|--------------|----------------|----------------|
|
| Gtr II
| E E E E H E E E E H E E E E E E Q E E E E E E Q
|--------------|--------------|----------------|----------------|
|--------------|--------------|----------------|----------------|
|---------2----|---------6----|----------------|----------------|
|---------3----|---------6----|---------6-7-8--|-------------7--|
|-----0-1-3----|-------4-5----|-4-5-7-8-----8--|-------------7--|
|-0-1----------|-4-5-6--------|-------------9--|-0-1-0-4-0-5-6--|


Gtr I
W W W W
|-1---------------|-0---------------|-4---------------|-0---------------|
|-3---------------|-2---------------|-6---------------|-5---------------|
|-----------------|-----------------|-----------------|-----------------|
|-----------------|-----------------|-----------------|-----------------|
|-----------------|-----------------|-----------------|-----------------|
|-----------------|-----------------|-----------------|-----------------|
|
| Gtr II
| E E E E E E E E E E E E E E E E E E E E E E E E E E E E E E E E
|-----------------|-----------------|-----------------|-----------------|
|-----------------|-----------------|-----------------|-----------------|
|-----------------|-----------------|-----------------|-----------------|
|-----------------|-------2---3---0-|-----------------|-------2---3---0-|
|-0-1-0-4-0-5-0-4-|-0-1-0---0---0---|-0-1-0-4-0-5-0-4-|-0-1-0---0---0---|
|-----------------|-----------------|-----------------|-----------------|


Gtr I
W W W W
|-1---------------|-0---------------|-4---------------|-0---------------|
|-3---------------|-2---------------|-6---------------|-5---------------|
|-----------------|-----------------|-----------------|-----------------|
|-----------------|-----------------|-----------------|-----------------|
|-----------------|-----------------|-----------------|-----------------|
|-----------------|-----------------|-----------------|-----------------|
|
| Gtr II
| E E E E E E E E E E E E E E E E E E E E E E E E E E E E E E E E
|-----------------|-----------------|-----------------|-----------------|
|-----------------|-----------------|-----------------|-----------------|
|-----------------|-----------------|-----------------|-----------------|
|-----------------|-------2---3---0-|-----------------|-------2---3---5-|
|-0-1-0-4-0-5-0-4-|-0-1-0---0---0---|-0-1-0-4-0-5-0-4-|-0-1-0---0---0---|
|-----------------|-----------------|-----------------|-----------------|
|
| Gtr III
|~~~~~~~~~~~~~~~~~~~~~~~~~~~~~~~~~~~~~~~~~~~~~~~~~~~~~~~TP
| W W W W
|-----------------|-----------------|-----------------|-----------------|
|-----------------|-----------------|-----------------|-----------------|
|-----------------|-----------------|-----------------|-----------------|
|-----------------|-----------------|-----------------|-----------------|
|-----------------|-----------------|-----------------|-----------------|
|-0---------------|-1---------------|-4---------------|-1---------------|


Gtr I
W W W W
|-1---------------|-0---------------|-4---------------|-0---------------|
|-3---------------|-2---------------|-6---------------|-5---------------|
|-----------------|-----------------|-----------------|-----------------|
|-----------------|-----------------|-----------------|-----------------|
|-----------------|-----------------|-----------------|-----------------|
|-----------------|-----------------|-----------------|-----------------|
|
| Gtr II
| E E E E E E E E E E E E E E E E E E E E E E E E E E E E E E E E
|-----------------|-----------------|-----------------|-----------------|
|-----------------|-----------------|-----------------|-----------------|
|-----------------|-----------------|-----------------|-----------------|
|-----------------|-------2---3---0-|-----------------|-------2---3---5-|
|-0-1-0-4-0-5-0-4-|-0-1-0---0---0---|-0-1-0-4-0-5-0-4-|-0-1-0---0---0---|
|-----------------|-----------------|-----------------|-----------------|
|
| Gtr III
| E E Q E E Q E E Q E E Q E E E E E E E E E S S E S S Q Q
|-----------------|-----------------|-----------------|-----------------|
|-----------------|-----------------|-----------------|-----------------|
|-----------------|-----------------|-----------------|-------------2-3-|
|-----------------|-----------3-----|---------------2-|---0-2---2-3-----|
|-0-1-0-0-5-0-----|-0-1-0---0---0---|-0---0---0---0---|-0-----0---------|
|-----------------|-----------------|---1---4---5-----|-----------------|


Gtr I
W W W W
|-1---------------|-0---------------|-4---------------|-0-------------------|
|-3---------------|-2---------------|-6---------------|-5-------------------|
|-----------------|-----------------|-----------------|---------------------|
|-----------------|-----------------|-----------------|---------------------|
|-----------------|-----------------|-----------------|---------------------|
|-----------------|-----------------|-----------------|---------------------|
|
| Gtr II
| E E E E E E E E E E E E E E E E E E E E E E E E E E E E E E E E
|-----------------|-----------------|-----------------|---------------------|
|-----------------|-----------------|-----------------|---------------------|
|-----------------|-----------------|-----------------|---------------------|
|-----------------|-------2---3---0-|-----------------|---------2-----3---5-|
|-0-1-0-4-0-5-0-4-|-0-1-0---0---0---|-0-1-0-4-0-5-0-4-|-0-1---0-----0---0---|
|-----------------|-----------------|-----------------|---------------------|
|
| Gtr III
| E E Q E E Q E E Q E E Q E E E E E E E E E S S E S S Q Q
|-----------------|-----------------|-----------------|---------------------|
|-----------------|-----------------|-----------------|---------------------|
|-----------------|-----------------|-----------------|-------------2---3---|
|-----------------|-----------3-----|---2---3---5---2-|---0-2---2-3---------|
|-0-1-0---0-5-0---|-0-1-0---0---0---|-0---0---0---0---|-0-----0-------------|
|-----------------|-----------------|-----------------|---------------------|


Gtr I
W W W W
|-1---------------|-0---------------|-4---------------|-0-------------------|
|-3---------------|-2---------------|-6---------------|-5-------------------|
|-----------------|-----------------|-----------------|---------------------|
|-----------------|-----------------|-----------------|---------------------|
|-----------------|-----------------|-----------------|---------------------|
|-----------------|-----------------|-----------------|---------------------|
|
| Gtr II
| E E E E E E E E E E E E E E E E E E E E E E E E E E E E E E E E
|-----------------|-----------------|-----------------|---------------------|
|-----------------|-----------------|-----------------|---------------------|
|-----------------|-----------------|-----------------|---------------------|
|-----------------|-------2---3---0-|-----------------|---------2-----3---5-|
|-0-1-0-4-0-5-0-4-|-0-1-0---0---0---|-0-1-0-4-0-5-0-4-|-0-1---0-----0---0---|
|-----------------|-----------------|-----------------|---------------------|
|
| Gtr III
| E E Q E E Q E E Q E E Q E S S E S S Q Q E S S E S S Q Q
|-----------------|-----------------|-----------------|---------------------|
|-----------------|-----------------|-----------------|---------------------|
|-----------------|-----------------|-----------------|-------------2---3---|
|-----------------|-----------3-----|-------------2-3-|---0-2---2-3---------|
|-0-1-0---0-5-0---|-0-1-0---0---0---|---0-1---1-4-----|-0-----0-------------|
|-----------------|-----------------|-0-----1---------|---------------------|


Gtr I
W W W
|-1-------------------------------0---------------------------------------4----------
|-3-------------------------------2---------------------------------------6----------
|------------------------------------------------------------------------------------
|------------------------------------------------------------------------------------
|------------------------------------------------------------------------------------
|------------------------------------------------------------------------------------
Gtr I
W
|---------------------------0--------------------|
|---------------------------5--------------------|
|------------------------------------------------|
|------------------------------------------------|
|------------------------------------------------|
|------------------------------------------------|

|
| Gtr II
| E E E E E E E E E E E E E E E E E E
|------------------------------------------------------------------------------------
|------------------------------------------------------------------------------------
|---------------------------------------------2-----------3----------0---------------
|-0---1---0---4---0---5---0---4---0---1---0---------0-----------0---------0----1-----
|------------------------------------------------------------------------------------
Gtr II
E E E E E E E E E E E E E E
|------------------------------------------------|
|------------------------------------------------|
|------------------------------------------------|
|------------------------------------------------|
|-----------------------------------2-----3---5--|
|0---4---0---5----0----4----0-1---0-----0---0----|
|------------------------------------------------|

| Gtr III
| S S S S S S S S S S S S S S S S S S S S S S S S S S S S S S S S S S S S
|---------------------4-5-6----------------------------------------------------------
|-----------------2-3-------5-6------------------------------------------------9-10-1
|-------------2-3---------------6-7---------------------------------------9-10-------
|---------2-3-----------------------6-7-8-------------------------8-11-12------------
|-----0-1---------------------------------7-8------------11-12-13--------------------
|-0-1-----------------------------------------9-10-12-13-----------------------------

Gtr III
S S S S S S S S S S S S E S S E S S Q Q
|--4-0-5-0-6-0-9-10------------------------------|
|1------------------9-10-11----------------------|
|---------------------------------------2---3----|
|-----------------------------0-2---2-3----------|
|---------------------------0-----0--------------|
|------------------------------------------------|

Gtr I
W W
|-1---------------|-0---------------|
|-3---------------|-2---------------|
|-----------------|-----------------|
|-----------------|-----------------|
|-----------------|-----------------|
|-----------------|-----------------|
|
| Gtr II
| E E E E E E E E E E E E E E E E
|-----------------|-----------------|
|-----------------|-----------------|
|-----------------|-----------------|
|-----------------|-------2---3---0-|
|-0-1-0-4-0-5-0-4-|-0-1-0---0---0---|
|-----------------|-----------------|
|
| Gtr III
| E E Q E E Q E E Q E E Q
|-----------------|-----------------|
|-----------------|-----------------|
|-----------------|-----------------|
|-----------------|-----------3-----|
|-0-1-0---0-5-0---|-0-1-0---0---0---|
|-----------------|-----------------|


W W
|-4-------------------------------0-------------------|
|-6-------------------------------5-------------------|
|-----------------------------------------------------|
|-----------------------------------------------------|
|-----------------------------------------------------|
|-----------------------------------------------------|
|
| E E E E E E E E E E E E E E E E
|-----------------------------------------------------|
|-----------------------------------------------------|
|-----------------------------------------------------|
|-----------------------------------------2-----3---5-|
|-0---1---0---4---0---5---0---4---0-1---0-----0---0---|
|-----------------------------------------------------|
|
| S S S S S S S S S S S S S S S S E S S E S S Q Q
|-6-5-------------4-1-----0---------------------------|
|-----6---------5-----2-3-----------------------------|
|-------7-----6-------------2-3---------------2---3---|
|---------8-7-------------------0---0-2---2-3---------|
|---------------------------------0-----0-------------|
|-----------------------------------------------------|


Gtr I
W W
|-1---------------|-0-------------------|
|-3---------------|-2-------------------|
|-----------------|---------------------|
|-----------------|---------------------|
|-----------------|---------------------|
|-----------------|---------------------|
|
| Gtr II
| E E E E E E E E E E E E E E E E
|-----------------|---------------------|
|-----------------|---------------------|
|-----------------|---------------------|
|-----------------|---------2-----3---0-|
|-0-1-0-4-0-5-0-4-|-0-1---0-----0---0---|
|-----------------|---------------------|
|
| Gtr III
|~~~~~~~~~~~~~~~~~~~~~~~~~~~~~~~~~~~~~~~~
| E E E E E E E E E S S E S S Q Q
|-----------------|---------------------|
|-----------------|---------------------|
|-----------------|-------------2---3---|
|---2---3---5---2-|---0-2---2-3---------|
|-0---0---0---0---|-0-----0-------------|
|-----------------|---------------------|


W W
|-4---------------|-0-------------------|
|-6---------------|-5-------------------|
|-----------------|---------------------|
|-----------------|---------------------|
|-----------------|---------------------|
|-----------------|---------------------|
|
| E E E E E E E E E E E E E E E E
|-----------------|---------------------|
|-----------------|---------------------|
|-----------------|---------------------|
|-----------------|---------2-----3---5-|
|-0-1-0-4-0-5-0-4-|-0-1---0-----0---0---|
|-----------------|---------------------|
|
|~~~~~~~~~~~~~~~~~~~~~~~~~~~~~~~~~~~TP
| E E E E E E E E E S S E S S Q Q
|-----------------|-------------4---5---|
|-----------------|---------------------|
|-----------------|---------------------|
|---2---3---5---2-|---0-2---2-3---------|
|-0---0---0---0---|-0-----0-------------|
|-----------------|---------------------|


Gtr I
W W
|-1---------------|-0---------------|
|-3---------------|-2---------------|
|-----------------|-----------------|
|-----------------|-----------------|
|-----------------|-----------------|
|-----------------|-----------------|
|
| Gtr II
| E E E E E E E E E E E E E E E E
|-----------------|-----------------|
|-----------------|-----------------|
|-----------------|-----------------|
|-----------------|-------2---3---0-|
|-0-1-0-4-0-5-0-4-|-0-1-0---0---0---|
|-----------------|-----------------|
|
| Gtr III
| TPTPTPTPTPTPTPTP TPTPTPTPTPTPTPTP
| E E E E E E E E E E E E E E E E
|-0-1-----4-5-----|-----------------|
|-----2-3-----5-6-|-----------------|
|-----------------|-1-2-----2-3-----|
|-----------------|-----2-3-----4-5-|
|-----------------|-----------------|
|-----------------|-----------------|


W W
|-4-----------------0---------------------------------------------|
|-6-----------------5---------------------------------------------|
|-----------------------------------------------------------------|
|-----------------------------------------------------------------|
|-----------------------------------------------------------------|
|-----------------------------------------------------------------|
|
| E E E E E E E E E E E E E E E E
|-----------------------------------------------------------------|
|-----------------------------------------------------------------|
|-----------------------------------------------------------------|
|-----------------------------------2-----------3----------5------|
|-0-1-0-4-0--5-0--4-0----1-----0----------0-----------0-----------|
|-----------------------------------------------------------------|
|
| TPTPTPTPTP TPTP TP
| E E E E E E E E S S S S S S S S S S S S S S Q
|-4-5-----9-10-------------------9-10-12-13-----------------------|
|-----5-6------9-10-0-10-9-10-11------------14-15-----------------|
|-------------------------------------------------14-15-----------|
|-------------------------------------------------------14----14--|
|-----------------------------------------------------------------|
|-------------------------------------------------------------12--|


|-|
|-|
|-|
|-|
|-|
|-|


Gtr I
W W W W
|--1-------------------|--0--------------|-4---------|--0----|
|--3-------------------|--2--------------|-6---------|--5----|
|----------------------|-----------------|-----------|-------|
|----------------------|-----------------|-----------|-------|
|----------------------|-----------------|-----------|-------|
|-12-------------------|-12--------------|-0---------|-12----|
|
| Gtr II
| E E E E E E E E Q Q Q Q H H W
|----------------------|-----------------|-----------|-------|
|----------------------|-----------------|-----------|-------|
|----------------------|-----------------|-----------|-------|
|----------2-----3---5-|-----2---3---5---|-3----5----|--3----|
|--0-1---0-----0---0---|--1--------------|-----------|-------|
|----------------------|-----------------|-----------|-------|
|
| Gtr III
| E S S E S S Q Q Q E E Q Q H H W
|----------------------|-----------------|-----------|-------|
|----------------------|-----------------|-----------|-------|
|--------------2---3---|-----------2---3-|-2----3----|--2----|
|----0-2---2-3---------|-----0-2---------|-----------|-------|
|--0-----0-------------|--0--------------|-----------|-------|
|----------------------|-----------------|-----------|-------|


Gtr I
W W
|--1---------------------------------------------0-----------------------------------
|--3---------------------------------------------2-----------------------------------
|------------------------------------------------------------------------------------
|------------------------------------------------------------------------------------
|------------------------------------------------------------------------------------
|-12--------------------------------------------12-----------------------------------
|
GtrI
W W
|----------4--------------------------------------------0-----------------|
|----------6--------------------------------------------5-----------------|
|-------------------------------------------------------------------------|
|-------------------------------------------------------------------------|
|-------------------------------------------------------------------------|
|----------0-------------------------------------------12-----------------|

| Gtr II
| E E E E E E E E Q Q Q Q
|------------------------------------------------------------------------------------
|------------------------------------------------------------------------------------
|------------------------------------------------------------------------------------
|------------------2-----------3-----------5----------------2----------3-----------5-
|--0----1-----0----------0-----------0-----------1-----------------------------------
|------------------------------------------------------------------------------------
GtrII
H H W
|-------------------------------------------------------------------------|
|-------------------------------------------------------------------------|
|-------------------------------------------------------------------------|
|----------3--------------------5-----------------------3-----------------|
|-------------------------------------------------------------------------|
|-------------------------------------------------------------------------|


| Gtr III
| S S S S S S S S S S S S S S S S S S S S S S S S S S S S S
|---------------9-10-12-13------------------------------------------9----10----12----
|--0-10-9-10-11------------14-15----------------------10-10-9-10-11---11----11----11-
|--------------------------------14-15-----------------------------------------------
|--------------------------------------14-15-----------------------------------------
|--------------------------------------------12-13-----------------------------------
|--------------------------------------------------12--------------------------------
Gtr III
S S S S S S S S S S S S S S S S S S S S S S Q H
|13-----------------------9-10-12-13--------------------------------------|
|---14-15-------------9-9------------14-15--------------------------------|
|---------14-15----------------------------14-15--------------------------|
|---------------14-14----------------------------14-15--------------14----|
|------------------------------------------------------12-13-14-----13----|
|------------------12-------------------------------------------12--12----|


Gtr I
W W W W
|--1-------------------|--0------------|-4-------------------|--0------------|
|--3-------------------|--2------------|-6-------------------|--5------------|
|----------------------|---------------|---------------------|---------------|
|----------------------|---------------|---------------------|---------------|
|----------------------|---------------|---------------------|---------------|
|-12-------------------|-12------------|-0-------------------|-12------------|
|
| Gtr II
| E E E E E E E E Q Q Q Q E E E E E E E E Q Q Q Q
|----------------------|---------------|---------------------|---------------|
|----------------------|---------------|---------------------|---------------|
|----------------------|---------------|---------------------|---------------|
|----------2-----3---5-|-----2---3--5--|---------2-----3---5-|-----2---3--5--|
|--0-1---0-----0---0---|--1------------|-0-1---0-----0---0---|--1------------|
|----------------------|---------------|---------------------|---------------|
|
| Gtr III
| E S S E S S Q Q Q E E Q Q E S S E S S Q Q Q E E Q Q
|----------------------|---------------|---------------------|---------------|
|----------------------|---------------|---------------------|---------------|
|--------------2---3---|---------2--3--|-------------2---3---|---------2--3--|
|----0-2---2-3---------|-----0-2-------|---0-2---2-3---------|-----0-2-------|
|--0-----0-------------|--0------------|-0-----0-------------|--0------------|
|----------------------|---------------|---------------------|---------------|


Gtr I
Q Q Q Q H H Q. Q. Q W
|--1------------0-------|--4-------5-----|--1---------0--------4--|--0----|
|--------3----------2---|--6-------0-----|--3---------2--------6--|--5----|
|-11-----------10-------|----------------|------------------------|-------|
|--------1----------0---|-14------14-----|-14--------14-------14--|-------|
|-----------------------|----------------|------------------------|-------|
|-----------------------|-12------12-----|-12--------12-------12--|-12----|
|
| Gtr II
| TP TP
| E E E E E E E E Q Q Q Q E S S E S S Q Q W
|-----------------------|----------------|------------------------|-------|
|-----------------------|----------------|------------------------|-------|
|-----------------------|----------------|-----------------2---3--|-------|
|----------2------3---5-|-----2----3--5--|-----0-2----2--3-2---3--|--3----|
|--0-1---0------0---0---|--1-------------|--0------0--------------|--3----|
|-----------------------|----------------|------------------------|--1----|
|
| Gtr III
| E S S E S S Q Q Q E E Q Q H H W
|-----------------------|----------------|------------------------|-------|
|-----------------------|----------------|------------------------|-------|
|---------------2---3---|----------2--3--|--2--------------3------|--2----|
|----0-2---2-3----------|-----0-2--------|------------------------|-------|
|--0-----0--------------|--0-------------|------------------------|-------|
|-----------------------|----------------|------------------------|-------|



Duration Legend
---------------
W - whole; H - half; Q - quarter; E - 8th; S - 16th; T - 32nd; X - 64th; a - acciaccatura
+ - note tied to previous; . - note dotted; .. - note double dotted
Uncapitalized letters represent notes that are staccato (1/2 duration)
Irregular groupings are notated above the duration line
Duration letters will always appear directly above the note/fret number it represents the
duration for. Duration letters with no fret number below them represent rests. Multi-
bar rests are notated in the form Wxn, where n is the number of bars to rest for. Low
melody durations appear below the staff

Tablature Legend
----------------
h - hammer-on
p - pull-off
b - bend
pb - pre-bend
r - bend release (if no number after the r, then release immediately)
/\ - slide into or out of (from/to "nowhere")
s - legato slide
S - shift slide
- natural harmonic
[n] - artificial harmonic
n(n) - tapped harmonic
~ - vibrato
tr - trill
T - tap
TP - trem. picking
PM - palm muting
\n/ - tremolo bar dip; n = amount to dip
\n - tremolo bar down
n/ - tremolo bar up
/n\ - tremolo bar inverted dip
= - hold bend; also acts as connecting device for hammers/pulls
<> - volume swell (louder/softer)
x - on rhythm slash represents muted slash
o - on rhythm slash represents single note slash



Comments:

01
04.02.2012
  MoshZilla1016

You been watching Tim Burton movies?? ;) I like it

Guest access is read-only. To write comment, please login!



Copyright © 2004-2015 All-Guitar-Chords.com. All rights reserved.