new transposer      circle of 5ths    wap


Rythmic Lick

by Enfir
 

If you play this with a heavy tone, and shallow distortion, it sounds kinda like a lullaby, but you can play around with the distortion depth and find a sound you like.


E|---------------|---------------|---------------|---------------|---------------|---------------|
B|---------------|---------------|--5-----------5|--7-----7-5----|---------------|---------------|
G|----------4----|467---------4--|7---------764--|----646-----4--|467-----4------|---------------|
D|----4-5-7---757|----5-7-------7|------757------|--------------7|----757---7-7--|2--------------|
A|7--------------|--------7------|---------------|---------------|--------------5|0--------------|
E|---------------|---------------|---------------|---------------|---------------|---------------|



E|---------------|---------------|---------------|---------------|---------------|---------------|
B|---------------|--------575----|---------------|---------------|5-------575----|---------------|
G|---------------|4-6---7-----764|--------------4|------------467|----7----------|---------------|
D|----4-5-7---457|---------------|7-5---4---457--|------757------|--7---------7--|2--------------|
A|7---------7----|---------------|--------7------|--7-------7----|--------------5|0--------------|
E|---------------|---------------|---------------|7--------------|---------------|---------------|



E|---------------|---------------|---------------|------5-7------|---------------|---------------|
B|------------575|--5---------575|---------------|5---5----------|---------------|---------------|
G|----------4----|7-------7------|--------------4|--7------------|--764---764----|---------------|
D|----4-5-7------|------7---7----|7-5-4-----757--|---------------|------7--------|2--------------|
A|7--------------|---------------|------7--------|--------------5|7-----------5-5|0--------------|
E|---------------|---------------|---------------|------------7--|---------------|---------------|



E|---------------|---------------|---------------|---------------|---------------|---------------|
B|---------------|------------5--|----5----------|---------------|5--------------|---------------|
G|------------4--|676-----764----|7-----764---6-4|---------------|--7------------|---------------|
D|----4-5-7------|----4-5-------7|----------4----|4-----------457|----5-4--------|2--------------|
A|7--------------|---------------|---------------|--7-------7----|--------7-----5|0--------------|
E|---------------|---------------|---------------|------5-7------|----------7-5--|---------------|


Just a little something I came up with :D

Comments:

Guest access is read-only. To write comment, please login!



Copyright © 2004-2017 All-Guitar-Chords.com. All rights reserved.