new transposer      circle of 5ths    wap


Some Random Little Solo

by Enfir
 

Here's a small solo I've been working on! It's good when played in a medium depth distortion level, but not too heavy for there are parts that requier deeper distortion. Tone can either be light and edgy, or heavy and soothing. Sounds good any way you play it though! Play it at your own speed, but be warned for it gets faster at some points!

Now, the beginning is a pretty simple, it's eight notes, ending with a half note on 8th fret F.

E|----5---------------------------------------------------|
B|------8p5-----------------------------------------------|
G|----------7p5---5---------7p5---------7p5---------------|
D|8b10----------8---8p5---------8p5---5-----5b7-5---------|
A|----------------------8p5---------8-------------8~~~~~~~|
E|--------------------------------------------------------|


After, you slide up to 15th fret D and play this:

E|----12h15p12----12----------------------------------------12h15p12------|
B|/15----------15----15p12----------------------------12h15----------15b17|
G|-------------------------14p12----12----------12h14---------------------|
D|-------------------------------15----15p12h15---------------------------|
A|------------------------------------------------------------------------|
E|------------------------------------------------------------------------|


From there, move straight into this. It may be a challenging transition at first, but can be easier if slid from the 17th fret E down to the 7th fret D.

E|----5---------------------------------------------------------------------------|
B|------8p5---5---8p5-------------------------------------------------------------|
G|7b9-------7---7-----7p5-------7p5---------------5b7-5---------------5h7p5-------|
D|------------------------8p5-------5h8p5-----5h8-------8p5---5-----5-------8b10--|
A|----------------------------5-----------8p5---------------5---8p5-------------10|
E|--------------------------------------------------------------------------------|


From here quickly flip up to the 3rd string for some two-finger tapping! (Hint: for these two tapping sections, TP=Tap Pointer TM=Tap Middle TR=Tap Ring.) These tapping section are played in sixteenth notes.

E|------------------------------------------------------------|
B|TP-TR----------TP-TR----------TP-TR----------TP-TR----------|
G|15h17p8-p5-h8-h15h17p8-p5-h8-h15h17p8-p5-h8-h15h17p8-p5-h8--|
D|------------------------------------------------------------|
A|------------------------------------------------------------|
E|------------------------------------------------------------|

E|------TM----------------------------------------------------|
B|5-h8-h13p8-p5-----TM----------------------------------------|
G|--------------h7-h12p7-p5-----TM--------------|----(x4)----||
D|--------------------------h8-h12p8-p5-----TM----------TM----|
A|--------------------------------------h8-h13p8-p5-h8-h13p8--|
E|------------------------------------------------------------|


Move directly from the tapping into this eight note climb.

E|----------------------------5---5h8-8b10--[HOLD]--|
B|------------------------5h8---8---------x4 Beats/|
G|------------------5h7/12-----------------------/-|
D|--------------5h8-------------------------Fill 1--|
A|------5h8p5h8----------------------------Guitar 2-|
E|8p5h8---------------------------------------------|


Then come back down.

E|8p5-------------------------------Fill 1----|
B|----8p5--------------------------Guitar 2---|
G|--------7p5---7p5-----7p5--------[HOLD]---/|
D|------------8-----8p5-----8p5---x4 Beats-/-|
A|------------------------------5-8b10--------|
E|--------------------------------------------|


Next you have this neat little lick.

E|------------------------------------------------Fill 1 Guitar 2-|
B|------------------------------------------------/[HOLD]4 Beats-|
G|----5-------5---------------------------5h7p5--/--7p5-7b9-7p5--|
D|5h8---8p5h8---8p5-----------5-------5h8-------8b10------------8-|
A|------------------8p5---5h8---8p5h8-----------------------------|
E|----------------------8-----------------------------------------|


Slide up and finish with this eight note lick.

E|----------15p12----12h15p12-------------15p10----15p10----15p10----15b17|
B|-------12-------15----------15p12----12-------12-------12-------12------|
G|----12----------------------------12------------------------------------|
D|/15---------------------------------------------------------------------|
A|------------------------------------------------------------------------|
E|------------------------------------------------------------------------|


OH! Here's the fill guitar 2 plays where indicated! It's four quater notes and fits in better if it's in the same tone, but deeper distortion!

E|1210--85--|
B|------------|
G|------------|
D|------------|
A|------------|
E|------------|


Have fun playing this! Feel free to change things and comment suggestions! Enjoy!

Comments:

Guest access is read-only. To write comment, please login!



Copyright © 2004-2017 All-Guitar-Chords.com. All rights reserved.