new transposer      circle of 5ths    wap



Amaj7 in 3 octaves

by MetalLick

Votes 2 | Rating 5

Amaj7 in 3 octaves
The idea of this lick is to use Ama7 chord in 3 octaves as the title says. It's a really fast lick but one can expand the idea into mutliple chords if one wants to. I personally prefer sweep picking the whole thing but you can do this otherwise as well. Sounds good with a lot of distortion.


e|--------------------------------------------------
B|--------------------------------------------------
G|--------------------------------------------------
D|--------------------------6h7-7p6---------6h7-----
A|------4h7-7p4---------4h7---------7p4-4h7---------
E|--4h5---------5p4-4h5-----------------------------

e|---------------------------------------------9h12---
B|----------------------9h10-10p9---------9h10--------
G|--6h9-9p6---------6h9-----------9p6-6h9-------------
D|----------7p6-6h7-----------------------------------
A|----------------------------------------------------
E|----------------------------------------------------

e|--12p9----------------------------------------------
B|-------10p9-----------------------------------------
G|------------9p6-------------------------------------
D|----------------7p6---------------------------------
A|--------------------7p4-----------------------------
E|------------------------5p4-------------------------

Comments:

Guest access is read-only. To write comment, please login!



Copyright © 2004-2015 All-Guitar-Chords.com. All rights reserved.