new transposer      circle of 5ths    wap


My first C major experience

by MetalLick
 
My first C major experience


This is what came up in my mind when I couple years ago started learning scales. I just took the C major scale and started noodling around. Now when I know a little more about scales and modes I know that you could call this also a B locrian mode, which has the same notes as C major, only the root and intervals compared to root are different. But anyway its a neat little lick in my opinion. Play with distortion and not too fast.



e|-------------------------------------------------------------------
B|-------------------------------------------------------------------
G|-------------------------------------------------------------------
D|-----------9-10-10-9-------------------9-10-10-9-------------------
A|------7-10-----------10-7---------7-10-----------10-7--------------
E|--7-8---------------------8-7-7-8---------------------8-7----------


e|-------------------------------------------------------12-13-------
B|-------------------------------------------------10-12-------------
G|--------------------------------------------9-10-------------------
D|-----------9-10-10-9-------------------9-10------------------------
A|------7-10-----------10-7---------7-10-----------------------------
E|--7-8---------------------8-7-7-8----------------------------------


e|--13-12------------------------------------------------------------
B|--------12-10------------------------------------------------------
G|--------------10-9-------------------------------------------------
D|-------------------10-9--------------------------------------------
A|------------------------10-7---------------------------------------
E|-----------------------------8-7-----------------------------------


Comments:

Guest access is read-only. To write comment, please login!



Copyright © 2004-2017 All-Guitar-Chords.com. All rights reserved.