new transposer      circle of 5ths    wap



Arpeggio in D major

by MetalLick
 



D Bm
e|--------------------12s14-17p14-------------------------14s15-
B|-----------------15-------------15-------------------15-------
G|--------------14-------------------14-------------16----------
D|-----------12-------------------------16-------16-------------
A|--------12-------------------------------17-14----------------
E|--10h14-------------------------------------------------------


e|--19p15----------19-------------------------------------------
B|--------15-17h19----19p15-------------------------------------
G|--------------------------16----------------------------------
D|-----------------------------16-------------------------------
A|--------------------------------17----------------------------
E|-----------------------------------19~------------------------


Nice arpeggio in D major. The fun part is that it uses only 2 chords, but both of them in two positions/fingerings.

Comments:

Guest access is read-only. To write comment, please login!



Copyright © 2004-2015 All-Guitar-Chords.com. All rights reserved.