new transposer      circle of 5ths    wap



Synyster Gates Inspired Shred Lick A Minor

by madguitar

Votes 1 | Rating 4





part 1 v v v ^ v ^ ^ ^ ^ ^
e|--------------15131613--------
b|------------15--------15------
g|-12-10-12-15------------13----
d|--------------------------15--
a|----------------------------17
e|------------------------------

part 2
e|-------------------------------
b|-------------------------------
g|-------------------------/19-18
d|-----------------/20-19~-------
a|-/17-16~-/20-19~---------------
e|-------------------------------

part 3
e|------------------------------------------------
b|-----------------------------------------20b~~~~
g|18-19-18-19-21-19-18-18-19-18-19-21-19-18-------
-----------very very fast--------------/

Comments:

Guest access is read-only. To write comment, please login!



Copyright © 2004-2015 All-Guitar-Chords.com. All rights reserved.