new transposer      circle of 5ths    wap


Tapping Lick Too

by MoshZilla1016
 

This is a tapping lick that I am still working on. It is based around the Gmin blues scale with a diminished added for PART 2. T=tap H=hammer on(hammer on from nowhere).



PART 1
T H T H T H T H T H T H T H T H T H T H T H T H
e--------------------------------------------------------------------------------------------------
B----------------5-6-5-3-------------------------5-6-5-3-------------------------5-6-5-3-----------
G--------5-6-5-3---------5-6-5-3---------5-6-5-3---------5-6-5-3---------5-6-5-3---------5-6-5-3---
D--8-5-3-------------------------5-8-5-3-------------------------5-8-5-3-------------------------5-
A--------------------------------------------------------------------------------------------------
E--------------------------------------------------------------------------------------------------

PART 2

T H T H T H T
e--9-6-3----------------------------------
B--------5-8-5-3--------------------------
G----------------5-6-5-3------------------
D------------------------5-8-5------------
A-----------------------------------------
E-----------------------------------------


Comments:

Guest access is read-only. To write comment, please login!



Copyright © 2004-2017 All-Guitar-Chords.com. All rights reserved.