new transposer      circle of 5ths    wap


Nice Little Am Solo

by Enfir

Votes 1 | Rating 3


This here is in Am. It sounds best with distortion, I tend to like flanger with it best. I do not suggest playing this at extreme speed, but moderate speed still sounds pretty cool.


|----------------|----------------|----------5-----|----------------|
|----------------|6-----6-5-------|6-5---6---------|6---5-----------|
|----------------|--7-------5-----|--------7-------|--------7-------|
|--------7-5-----|----------------|----------------|------------7---|
|0---5-8---------|----------------|----------------|----------------|
|----------------|----------------|----------------|----------------|

|----------------|----------------|----------------|----------------|
|----------------|----------------|----------------|----------------|
|----------------|----------------|------9-7-------|--------7-------|
|------7-5-------|------7-5-------|7-10-9----7-----|----9-7---------|
|5-8-7-----5-----|5-8-7-----------|----------------|10-8------------|
|----------------|----------------|----------------|----------------|

|------8---------|10-8----12------|----------15----|12--------------|
|6-------10-8----|------10--------|15--13--12------|--1512--13------|
|----------------|----------------|----------------|------14--1412--|
|----------------|----------------|----------------|--------------12|
|----------------|----------------|----------------|----------------|
|----------------|----------------|----------------|----------------|

|----------------|----151715------|----------------|----------------|
|----------------|1517------17----|--------12------|1312------------|
|------1214------|----------------|14171612--14----|----1214--------|
|----14----------|----------------|----------------|----------------|
|1215------------|----------------|----------------|--------12------|
|----------------|----------------|----------------|----------------|

|----------------|5-8-7---5-------|----------------|----------------|
|--5-----6-5---5-|----------8-5-6-|5---------------|----------------|
|7---7-------5---|----------------|--5-------------|----------------|
|----------------|----------------|----7---------5-|--7-5-------5---|
|----------------|----------------|--------5-8-7---|7---------5---7-|
|----------------|----------------|----------------|--------8-------|

|----------------|------------12--|15121312--121315|17--------------|
|----------------|--108-101312--15|--------15------|17--------------|
|----------7-5-10|9---------------|----------------|----------------|
|------7-5-------|----------------|----------------|----------------|
|5-7-8-----------|----------------|----------------|--------0-------|
|----------------|----------------|----------------|----------------|


On the last open 5th string there is an optional whammy bar dive, I would have tabbed it with such, but I don't have a whammy bar so I honestly have no idea if it sounds good in there.

Enjoy!

Comments:

01
04.04.2014
  MetalLick

It has a nice laid back attitude. And I think it suits better without that whammy dive, but that's my opinion.

Guest access is read-only. To write comment, please login!



Copyright © 2004-2017 All-Guitar-Chords.com. All rights reserved.