new transposer      circle of 5ths    wap


Pentatonic E pseudo-blues

by emanuelm

Votes 1 | Rating 4




|----8------------------|
|------10~~----8--10(b)-|
|-9---------9-----------|
|-----------------------|
|-----------------------|
|-----------------------|

Something I found in my quest for mastering the blues. I'm a beginner, any tips would be appreciated.

Comments:

01
01.23.2017
  SoftDolphin


|----8------------------| 12 8

|------10~~----8--10(b)-|

|-9---------9-----------|

|-----------------------|

|-----------------------|

|-----------------------|
Sounds more complete

Guest access is read-only. To write comment, please login!



Copyright © 2004-2017 All-Guitar-Chords.com. All rights reserved.