new transposer      circle of 5ths    wap


Blues solo w/ rythm in A - (Intermediate to Expert)

by DSheffar

Votes 1 | Rating 5




5th and 17th pattern of A pentatonic blues scale. rythym suggestions further below.




1 e & a 2 e & a 3 e & a 4 e & a
e|----------------|----------------|----------------|----------------|
B|----------------|----------------|----------------|----------------|
G|----------------|----------------|----------------|----------------|
D|----------------|----------------|----------------|----------7b5---|
A|----------------|5--7~-------7-6-|5---3-----------|--------------7-|
E|555~----5---8---|----------------|------------3-3/|5~------5-------|

1 e & a 2 e & a 3 e & a 4 e & a
e|----------------|----------------|----------------|----------------|
B|----------------|----------------|----------------|----------------|
G|----------------|----------------|----------------|----------------|
D|----------------|----------------|------------5-7-|7b~~~~~~7-5-----|
A|6-5-3-5-6~--7-6-|5-3-5-3---------|------5-6-7-----|------------7-6-|
E|----------------|--------333/5~--|555-8-----------|----------------|

1 e & a 2 e & a 3 e & a 4 e & a
e|----------------|----------------|----------8x8x--|5-------5-8-5---|
B|----------------|--------------5-|8x8x8x8-5-------|--------------8-|
G|----------------|--5-7/8-7-5-7---|----------------|----------------|
D|----------5-7---|7---------------|----------------|----------------|
A|5b--5-6-7-------|----------------|----------------|----------------|
E|----------------|----------------|----------------|----------------|

1 e & a 2 e & a 3 e & a 4 e & a
e|----------------|----8-5-----5/--|12x12x12x--8-5-|8/--12/-17------|
B|5-8-5-----------|8-5-------------|----------------|----------------|
G|------5-7-8-7-5-|----------------|----------------|----------------|
D|----------------|----------------|----------------|----------------|
A|----------------|----------------|----------------|----------------|
E|----------------|----------------|----------------|----------------|

1 e & a 2 e & a 3 e & a 4 e & a
e|17-20-17--------|----------------|----------------|----------------|
B|---------20-17--|----------------|----------------|----------------|
G|----------------|17-19-20-19-17--|----------------|17-19-20x20x-19-|
D|----------------|----------------|19~-----19-17-19|----------------|
A|----------------|----------------|----------------|----------------|
E|----------------|----------------|----------------|----------------|

1 e & a 2 e & a 3 e & a 4 e & a
e|----------------|----------------|----------------|----------------|
B|----------------|----------------|----------------|----------------|
G|17--------------|----------------|----------------|----------------|
D|---17x-17-19--19|17--------------|----------------|----------------|
A|----------------|---19-18-17-15b-|15-17-15--------|-----5676353----|
E|----------------|----------------|--------15x15-17|5-5--------5-33|

1 e & a 2 e & a 3 e & a 4 e & a
e|----------------|----------------|----------------|----------------|
B|----------------|----------------|----------------|----------------|
G|----------------|----------------|----------------|----------------|
D|----------------|----------------|----------------|----------------|
A|----------------|----------------|----------------|----------------|
E|3/5-------------|----------------|----------------|----------------|



I'm going to leave it there on the condition that, if you want to keep soloing mess around with the notes, do bends and vibratos and slides and legatos, maybe some blues tapping, just mess around, those are all the notes in the Blues Pentatonic scale in A. Just mess around.

Legend
~ Vibrato
b Bend
b~ Hold Bend while doing a light, light Vibrato.
x Mute or Cancel note (best way is just to let your finger come off the note).
/ Slide Up
Slide Down


Rythym

These are just suggested rythym riffs to give bottom end to the solo above, bass can use the root note of the chord or whatever.
Im just giving the chord, rythymist can figure out progression and pick pattern.



1 e & a 2 e & a 3 e & a 4 e & a
e|----------------|----------------|----------------|----------------|
B|----------------|----------------|----------------|----------------|
G|----------------|(7)-(8)-(9)-----|----------------|----------------|
D|7/105-----------|-7---8---9------|----------------|----------------|
A|7/105-----------|-5---6---7------|----------------|----------------|
E|5/8-3-----------|----------------|----------------|----------------|

1 e & a 2 e & a 3 e & a 4 e & a
e|----------------|----------------|----------------|----------------|
B|----------------|----------------|----------------|----------------|
G|----------------|----------------|----------------|----------------|
D|----------------|----------------|-------------7-5|----------------|
A|----------------|----------------|----------------|7-6-------------|
E|5h8-8-8-8--8-8-8|3-3-3-3---3-3-3h|5-5-5-5--5-5----|----------------|



Just mess around


Comments:

Guest access is read-only. To write comment, please login!



Copyright © 2004-2017 All-Guitar-Chords.com. All rights reserved.