new transposer      circle of 5ths    wap



Cool lick in Em

by Guitarslinger124

Votes 7 | Rating 4.29


Here's a cool lick in Em...I'm using an exotic scale here, so you'll have to be careful where you use it...you can sweep it or pick it...


E||----------------------------------------
B||-------12-------13-------12----------13-
G||----13-------14-------13-------14-------
D||-14-------15-------14-------15----15----
A||----------------------------------------
E||----------------------------------------



E||-------------------------------------------
B||----12----------13-------12-------13-------
G||-------13-14-------14-------13-14-------14-
D||-14----------15-------14-------------15----
A||-------------------------------------------
E||-------------------------------------------

Comments:

01
02.18.2008
  OldeRockerChick

Intersting. :) Curious to know that scale. xX

Guest access is read-only. To write comment, please login!



Copyright © 2004-2015 All-Guitar-Chords.com. All rights reserved.