new transposer      circle of 5ths    wap



Thrashy Lick

by Veqq
 


||------------------------------------------|
||------------17----------17S15----15-/13---|
||--19b21--19----19-17-19-------17----------|
||------------------------------------------|
||------------------------------------------|
||------------------------------------------|


Nice Thrashy Lick. In C Major, A minor Pentonic and all those things... You can also play it as:


||-----------------------------------------|
||------------17----------17---------------|
||--19b21--19----19-17-19----19-17-19-17---|
||-----------------------------------------|
||-----------------------------------------|
||-----------------------------------------|


Comments:

Guest access is read-only. To write comment, please login!



Copyright © 2004-2015 All-Guitar-Chords.com. All rights reserved.