new transposer      circle of 5ths    wap



Stevie Ray Vaughan Licks

by foogered
 

Here are some licks similar to ones that SRV uses in quite a few of his songs. Admittedly, I added the 13th and 7th chord to the end of the first one, and the little hammer on and pull off to the end of the second, just to fill them out.



E|--6-6-6-6-6-6-6-------------------6~--|
b|--6-6-6-6-6-6-6---9-9-99\-8-8-6-6-----|
g|--6-6-8-9-8-6-6---8-8-88\-7-7-7-7-----|
d|--8-----------8---7-7-77\-6-6-6-6-----|
a|----------------8-8-8-88--------------|
e|--------------------------6-6-6-6-----|




E|--12-12-13-12-12------------|
b|----------------------------|
g|--12-14-15-14-12------------|
d|-----------------14p12h14~--|
a|----------------------------|
e|----------------------------|

Comments:

Guest access is read-only. To write comment, please login!



Copyright © 2004-2015 All-Guitar-Chords.com. All rights reserved.