new transposer      circle of 5ths    wap



E-major pentatonic variation (the correct one)

by jamesrue
 

sorry i posted it wrong just before, so here's the correct one, with the tab included. I tried to show the note lengths and pauses by leaving large spaces, but its still hard to understand. I'll see if i can put an mp3 up soon.


e-------------------0--------2---3b-0-------------------------------------------------------------
B----3---2---1------------------------3-0---------------------------------------------------------
G-/4--4-3-3-2-2--1------------------------2-0-2-0-2b-2b-0-----------------------------------------
D---------------------------------------------------------2-0-2------2-2-0-0----------------------
A--------------------0h1h2---------------------------------------------------2-2-0-0-------0------
E------------------------------------------------------------------------------------3b-3b---3-0-0



and sometimes i use this for an ending straight after ( i cant remember where i learnt this, but i didnt make it)



e----12-------12-------12--------------
B-12----12-11----11-10----10-9---------
G----------------------------------0-1-
D----------------------------------1-2-
A----------------------------------1-2-
E----------------------------------0-0-


please comment and rate :)

Comments:

01
06.19.2008
  foogered

It's actually a mix of the minor pentatonic and blues scales. Sounds cool, and the two chords at the end bring something new to it.

Guest access is read-only. To write comment, please login!



Copyright © 2004-2015 All-Guitar-Chords.com. All rights reserved.