new transposer      circle of 5ths    wap



new online guitar tab player

General Chat
tabandplay  
18 Dec 2010 04:29 | Quote
Joined: 18 Dec 2010
Karma
hey guys , hope its ok that i am posing this here ,
we have developed a web application that is an online guitar which can play any tab you want , edit them and even
record and save them to assist in learning guitar
we are currently in beta version (so its FREE), we need your feedbacks and suggestions in order to make the best tab player / editor for your needs , so please visit us and tell us your view , here is a screen capture :



link : http://www.tabnplay.com

hope you enjoy :)
nullnaught  
18 Dec 2010 06:56 | Quote
Joined: 05 Jun 2010
Karma: 22
This don't seem too bad.
GuitarGeorge  
18 Dec 2010 12:53 | Quote
Joined: 17 Jul 2009
Licks: 3
Karma: 6
I tried it out... I inserted this:

Track 1: Track 1

E|------------------------|------------------------|------------------------|---------------------|
B|------------------------|------------------------|------------------------|---------------------|
G|-0----3----5--------0---|-----3----6---5---------|-0----3----5--------3---|-----0---------------|
D|-0----3----5--------0---|-----3----6---5---------|-0----3----5--------3---|-----0---------------|
A|------------------------|------------------------|------------------------|---------------------|
E|------------------------|------------------------|------------------------|---------------------|


E|------------------------|------------------------|------------------------|---------------------|
B|------------------------|------------------------|------------------------|---------------------|
G|-0----3----5--------0---|-----3----6---5---------|-0----3----5--------3---|-----0---------------|
D|-0----3----5--------0---|-----3----6---5---------|-0----3----5--------3---|-----0---------------|
A|------------------------|------------------------|------------------------|---------------------|
E|------------------------|------------------------|------------------------|---------------------|

It did not work.
This is a clearly bad idea anyway since TABS don't have any feeling for rhythm. Sorry.
nullnaught  
18 Dec 2010 12:54 | Quote
Joined: 05 Jun 2010
Karma: 22
is that deep purple
GuitarGeorge  
18 Dec 2010 13:02 | Quote
Joined: 17 Jul 2009
Licks: 3
Karma: 6
Yeah ;)
nullnaught  
18 Dec 2010 13:04 | Quote
Joined: 05 Jun 2010
Karma: 22
Thats a popular tune
GuitarGeorge  
18 Dec 2010 13:32 | Quote
Joined: 17 Jul 2009
Licks: 3
Karma: 6
Kind of, yes, and that's the reason why I tested the software with it. :)
tabandplay  
22 Dec 2010 04:39 | Quote
Joined: 18 Dec 2010
Karma
GuitarGeorge : Thank You for bringing this bug to our attention , as we said we are currently in Beta so glitches might happen ,
after inspecting the tab you inserted , we think , that the problem was that your example has spaces/line between each line and that might have caused it to not function , as our insert utility tries to clean everything that is not tab related ,
thanks for taking the time , we'll fix it .

please try to copy tabs from tab database sites you know and see if you encounter other problems ,if so please let us know
(i say this because we have noticed that this forum insert tab in post [tab function is generating those spaces )

About your Feedback , we are fully aware that tabs are far from accurate , and do not have the correct rhythm ,in the future we are planning to add a feature that will enable users to arrange the tab in a timescale , so it will be accurate , in the meantime we hope this will ease the process or learning from a written tab.

macandkanga  
22 Dec 2010 18:45 | Quote
Joined: 03 Oct 2008
United States
Karma: 21
I like it. It's similar to an online version of tabtoolkit for iPad. I'm unable to hear it for the moment because I'm at work.

Does it work on a Mac or iPad?

Only other feedback is that I'm used to seeing the fretboard turned the othe way like I'm looking down at it. I'll have to see when I get home how that works for me. I'll let ya know. And, when you decide to start charging for it will it be a downloaded app that you pay a single price or available online at a charge or both?

Other than that, you have a great app there!
mpangeea  
25 Apr 2017 02:40 | Quote
Joined: 25 Apr 2017
Karma
Though, Is an old post, 2010.
Is 2017 and I am quit late, still technology did not help me enough.
www.ghitar.com

Does not work on Internet explorer and any other MS browsers.
Some tabs fails to load.
On cheap phones / computers /tablets has hiccups. Load ligher tabs.
Enjoy.
M Panga
Guest access is read-only. To write new post, please login!



Copyright © 2004-2015 All-Guitar-Chords.com. All rights reserved.